Oops, an error
Loading. Please wait.

A Gun For Christmas Tab

version 1
version 1

Whole song

984 views 1 this week
no commentswrite comment
1 2 3 4 5
please rate
add to favorites
launch autoscroll
font size
0
reset
how to read this tab
guitar tuner
Tab Pro tools
  • play this tab
  • loop segment
  • change instrument
  • show fretboard
  • metronome
×
Best way to learn
"A Gun For Christmas"
Autoscroll
slow
fast
+/-
esc
set tempo
stop
Contributor
THE VANDALS-A GUN FOR CHRISTMAS

Intro 
e|---------------------------------------------------------------------------| 
B|---------------------------------------------------------------------------| 
G|---------------------------------------------------------------------------| 
D|-7-6-5-4-3-7-6-9-7--12-12-11-10-9-8-7-7-12-12-11-11-11-11-11--11--12-11-10-| 
A|-5-4-3-2-1-5-4-7-5--10-10--9--8-7-6-5-5-10-10--9--9--9--9--9---9--10--9--8-| 
E|---------------------------------------------------------------------------| 

e|----------------------------------------------------------------------------| 
B|----------------------------------------------------------------------------| 
G|----------------------------------------------------------------------------| 
D|-9-12-11-10-9-12-11-10-9-4-4/5--7-7-7-7-12-12-12-12-11-11-11-11-11----------| 
A|-7-10--9--8-7-10--9--8-7-2-2/3--5-5-5-5-10-10-10-10--9--9--9--9--9--4-4-5-5-| 
E|--------------------------------------------------------------------2-2-3-3-| 

e|--------------------------------------------------------------| 
B|--------------------------------------------------------------| 
G|--------------------------------------------------------------| 
D|------------------------7-7-7-7-12-12-12-12-11-11-11-11-11--7-| 
A|-4-4-5-5-4-4-5-5-5-5-5--5-5-5-5-10-10-10-10--9--9--9--9--9--5-| 
E|-2-2-3-3-2-2-3-3-3-3-3----------------------------------------| 

Bell riff 
e|------------------------------------------------------------------| 
B|------------------------------------------------------------------| 
G|-7-6-11-9-7-6-4-2-12-11-9-7-6-9--7-6-11-9-7-6-4-2-12-11-9-7-6-9-7-| 
D|------------------------------------------------------------------| 
A|------------------------------------------------------------------| 
E|------------------------------------------------------------------| 

Verse 1 
e|--------------------------------------------------------------| 
B|--------------------------------------------------------------| 
G|--------------------------------------------------------------| 
D|-7-7-7-7-7-7-7-7-7--------------7-7-7-7-12-12-12-12-5-5-5-5-9-| 
A|-5-5-5-5-5-5-5-5-5--pick-slide--5-5-5-5-10-10-10-10-3-3-3-3-7-| 
E|--------------------------------------------------------------| 

Verse 2 
e|---------------------------------------------------------------| 
B|---------------------------------------------------------------| 
G|---------------------------------------------4-4-4-4-----------| 
D|-7-7-7-7-12-12-12-12-5-5-5-5-9-9-9-9-4-4-4-4-2-2-2-2-2-2-2-2-2-| 
A|-5-5-5-5-10-10-10-10-3-3-3-3-7-7-7-7-2-2-2-2-2-2-2-2-0-0-0-0-0-| 
E|---------------------------------------------------------------| 

Riff 
e|-------------------------------------------------------------------| 
B|-------------------------------------------------------------------| 
G|-7-6-4-2-12-11-9-7-6-9~~--7-6-4-2-12-11-9-7-6-9~~-11~~--12~~--14~~-| 
D|-------------------------------------------------------------------| 
A|-------------------------------------------------------------------| 
E|-------------------------------------------------------------------| 

Bridge 
e|----------------------| 
B|----------------------| 
G|----------------------| 
D|----------------------| 
A|-7-7-8-7-7-8-7-7-7-8-7| 
E|-5-5-6-5-5-6-5-5-5-6-5| 

Riff 2 
e|-10b-10b-11-10--10b-10b-11----10b-10b-11-10--------| 
B|---------------------------------------------------| 
G|---------------------------7----------------7b-----| 
D|-----------------------------------------------7-7-| 
A|---------------------------------------------------| 
E|---------------------------------------------------| 

Outro 
e|---------------------------------------------------------------------------| 
B|------------------------------------------------------------------------17-| 
G|-9-8-6-4-14-13-11-9-8-11~~--9-8-6-4-14-13-11-9-8-11~~-13~~--14~~--16~~-----| 
D|---------------------------------------------------------------------------| 
A|---------------------------------------------------------------------------| 
E|---------------------------------------------------------------------------| 

e|-------13-17b-13------------------------------------------------------------| 
B|-13-17----------------------------------------------------------------------| 
G|----------------------------------------------------------------------------| 
D|-----------------9-9-9-9-9-9-9-7-7-7-7-9-9-9-9------------------------------| 
A|-----------------7-7-7-7-7-7-7-5-5-5-5-7-7-7-7--6-6-6-6-6-6-6-4-4-4-4-4-4-4-| 
E|------------------------------------------------4-4-4-4-4-4-4-2-2-2-2-2-2-2-| 

e|---------------------------------------------------------------------------| 
B|---------------------------------------------------------------------------| 
G|---------------------------------------------------------------------------| 
D|-----------------------------------9---------------------------------------| 
A|-7-7-7-7-7-7-7-9-9-9--9-9-9--9-9-9-7---------------------------------------| 
E|-5-5-5-5-5-5-5-7-7-7--7-7-7--7-7-7-----------------------------------------|
comments
We did not receive enough feedback on this tab! Please rate:
print report bad tab
1 2 3 4 5
I want to post or [tab]
guest
You may want to rate the tab now too:
select rating
Please do not post tabs as comments. Select "correction" instead!