Oops, an error
Loading. Please wait.

Anarchy Burger Bass Tab

version 1
version 1

Whole song

Interactive

1,174 views 3 this week
1 commentread comment
1 2 3 4 5
accurate
x 4
add to favorites
launch autoscroll
font size
0
reset
guitar tuner
Tab Pro tools
  • play this tab
  • loop segment
  • change instrument
  • show fretboard
  • metronome
×
Best way to learn
"Anarchy Burger"
Autoscroll
slow
fast
+/-
esc
set tempo
stop
Song: Anarchy Burger
Band: Vandals
Album: Peace Thru Vandalism
tabbed by: ALBINO	
bbfan@bellatlantic.net
http://www.geocities.com/SunsetStrip/Stage/5367/tab.html

				> = strum

  Intro and chorus:
G:------------------------------------
D:-5--5-5-3-5--5-5-3------------------
A:-------------------5--5-5-3-5--5-5--
E:------------------------------------

  Verse:
G:---------
D:---------
A:---------
E:---5>----

  Part near the end:
G:---------------------------------------------------------------
D:---------------------------------------------------------------
A:--5-5--5-5------------5-5--5-5------------7-7--5-5-------------
E:------------5-5--5-5------------5-5--5-5-----------5>--0>------



Thats it. The bassist might squeeze a few extra 
notes in once in a while- its hard to tell.
corrections, questions, tab, and other stuff goes to bbfan@bellatlantic.net


comments
print report bad tab
1 comment total.
0 reply
BassManC1998 wrote on October 18 2015, 12:38 pm

Shouldn't it be this for the intro/chorus?

G:-----------------------------------------
D:-----------------------------------------
A:-5--5-5-3-5--5-5-3-----------------------
E:-------------------5-5-5-0-3--5-5-5-0-3--

I want to post or [tab]
guest
You may want to rate the tab now too:
select rating
Please do not post tabs as comments. Select "correction" instead!