Oops, an error
Loading. Please wait.

Fcked Up Girl Bass Tab

677 views 1 this week
no commentswrite comment
1 2 3 4 5
please rate
add to favorites
launch autoscroll
font size
0
reset
guitar tuner
Tab Pro tools
  • play this tab
  • loop segment
  • change instrument
  • show fretboard
  • metronome
Autoscroll
slow
fast
+/-
esc
set tempo
stop
Contributor
Intro  x1
G|----2-333-222-------------------------333-222-333-555-----|
D|3-5-----------555-333---------------------------------3~--|
A|----------------------666-555-----------------------------|
E|------------------------------888-666---------------------|

Verse  x1
G|----------------------------------------------|
D|------------------------------3-----------15~-|
A|1-----------------6-----1-----------1---------|
E|------1-----3---------------------------------|

Verse(part 2)  x1
G|3-2-------------------------3-8------------------------------------|
D|----5-3/7-5-3-1-5-3-1-0-1-5-----------------------3-----3---3-15~--|
A|--------------------------------1-3-5-6-8-6-5-3-1---1-1---1--------|
E|-------------------------------------------------------------------|
 
Chorus  x1
G|------0-1-0-----------0-1-0-------0-3-5-6-5-3-0-------0-1-0-----|
D|--0-3-------3-0---0-3-------3-0-1-----------------0-3-------3-0-|
A|1---------------1-------------------------------1---------------|
E|----------------------------------------------------------------|

G|--------------------------------------------|
D|15~--------17~--12~-------15-13-12-10-8~----|
A|---------------------10~--------------------|
E|--------------------------------------------|

Verse(part 2)  x2

Chorus  x1

Intro  x2

Chorus  x1

Thats it. pretty fun bluesy song to play. Just got into the vandals 
and im absolutely lovin em. Good fun band that doesnt take themselves
too seriously like most bands do. Please rate and comment.
comments
We did not receive enough feedback on this tab! Please rate:
print report bad tab
1 2 3 4 5
I want to post or [tab]
guest
You may want to rate the tab now too:
select rating
Please do not post tabs as comments. Select "correction" instead!