Oops, an error
Loading. Please wait.

Flowers Are Pretty Bass Tab

654 views 3 this week
no commentswrite comment
1 2 3 4 5
please rate
add to favorites
launch autoscroll
font size
0
reset
guitar tuner
Tab Pro tools
  • play this tab
  • loop segment
  • change instrument
  • show fretboard
  • metronome
×
Best way to learn
"Flowers Are Pretty"
Autoscroll
slow
fast
+/-
esc
set tempo
stop
Contributor
Difficulty
novice
The Vandals -  Flowers Are Pretty
Tabbed by Thomas Saw
mafia_doctor@hotmail.com



 Intro
 4/4
  Gtr I
|-----|
|-----|  Rest for 20 bars
|-----|
|-----|


|----------|------------|----------|
|----------|------------|----------|
|----------|------------|----------|
|-7--------|-(7)--------|-2--------|


|----------------------|----------|-----------||
|----------------------|----------|-----------||
|----------<5>-<4>-----|----------|-----------||
|-(2)S==0----------<5>-|-7--------|-5----7----||


   Verse
||-----------------|---------------|---------------|------------------||
||o----------------|---------------|---------------|-----------------o||
||o----------------|---------------|---------------|-----------------o||
||--0--0-0-0-0-0-0-|-2-2-2-2-2-2-2-|-4-4-4-4-4-4-4-|-5-5-5-5-5-5-5----||


 Pre-Chorus
|-------|------------------|----------------|-----------|----------|----------||
|-------|------------------|----------------|-----------|----------|----------||
|-------|------------------|----------------|-----------|----------|----------||
|-7-----|-7-5-4-------2----|-2-----(2)--(2)S|=14--------|-7--------|-5----7---||


 Chorus
|-----------------|-----------------|---------7-7-7---|-----------------|
|-----------------|-----------------|-------7---------|-----------------|
|-----------------|-----------------|-5-5-5---------5-|-2-2-2-2-2-2-----|
|-0-0-0-0-0-0-0-0-|-4-4-4-4-4-4-4-4-|-----------------|-------------5-4-|


|-----------------|-----------------|---------7-7-7---|-----------------||
|-----------------|-----------------|-------7---------|-----------------||
|-----------------|-----------------|-5-5-5---------5-|-0-0-0-0-0-0-0-0-||
|-0-0-0-0-0-0-0-0-|-4-4-4-4-4-4-4-4-|-----------------|-----------------||


   Post Chorus
||------------------|-----------------|-----------------|-----------------||
||o-----------------|-----------------|-----------------|----------------o||
||o-----------------|-----------------|-----------------|----------------o||
||--0-0-0-0-0-0-0-0-|-2-2-2-2-2-2-2-2-|-4-4-4-4-4-4-4-4-|-5-5-5-5-5-5-5-5-||


 Break
|-----------------|-----------------|-----------------|-----------------|
|-----------------|-----------------|-----------------|-----------------|
|-----------------|-----------------|-----------------|-----------------|
|-0-0-0-0-0-0-0-0-|-0-0-0-0-0-0-0-0-|-0-0-0-0-0-0-0-0-|-0-0-0-0-0-0-0-0-|


|-----------------|-----------------|-----------------|-----------------||
|-----------------|-----------------|-----------------|-----------------||
|-----------------|-----------------|-----------------|-----------------||
|-0-0-0-0-0-0-0-0-|-0-0-0-0-0-0-0-0-|-0-0-0-0-0-0-0-0-|-0-0-0-0-0-0-0-0-||


   Interlude
||------------------|-----------------|-----------------|-------------------||
||o-----------------|-----------------|-----------------|------------------o||
||o-7-7-7-7-7-7-7-7-|-----------------|-----------------|------------------o||
||------------------|-2-2-2-2-2-2-2-2-|-4-4-4-4-4-4-4-4-|-5-5-5-5-5-5-5-5---||


 Outro
|-----------------|-----------------|-----------------|-----------------|
|-----------------|-----------------|-----------------|-----------------|
|-----------------|-----------------|-----------------|-----------------|
|-0-0-0-0-0-0-0-0-|-2-2-2-2-2-2-2-2-|-4-4-4-4-4-4-4-4-|-5-5-5-5-5-5-5-5-|


|-----------------|-----------------|-----------------|-------------------|
|-----------------|-4-4-4-4-4-4-4-4-|-6-6-6-6-6-6-6-6-|-7-7-7-7-7-7-7-7---|
|-----------------|-----------------|-----------------|-------------------|
|-0-0-0-0-0-0-0-0-|-----------------|-----------------|-------------------|


|------*|
|------*|
|-7----*|
|------*|
comments
We did not receive enough feedback on this tab! Please rate:
print report bad tab
1 2 3 4 5
I want to post or [tab]
guest
You may want to rate the tab now too:
select rating
Please do not post tabs as comments. Select "correction" instead!