Oops, an error
Loading. Please wait.

Hb Hotel Tab

324 views 1 this week
no commentswrite comment
1 2 3 4 5
please rate
add to favorites
launch autoscroll
font size
0
reset
how to read this tab
guitar tuner
Tab Pro tools
  • play this tab
  • loop segment
  • change instrument
  • show fretboard
  • metronome
×
Best way to learn
"Hb Hotel"
Autoscroll
slow
fast
+/-
esc
set tempo
stop
Contributor
Tabbers playing skills
beginner
-------------------------------------------------------------------------------
HB Hotel - The Vandals
Peace Thru Vandalism/When In Rome Do As The Vandals Do
-------------------------------------------------------------------------------
Tabbed by: axeslash
Email: holmzito@yahoo.com

Tuning: Standard

e|----------------------------------------------------------------|
B|----------------------------------------------------------------|
G|-7---7-7------12-7^---------------------------------------------|
D|-7---7-7------12-7^---------3-2-0-----------------------2-2-2-2-|
A|-5---5-5------10-5^---------------3-2-0-2-2-2-2-2-2-2-2-2-2-2-2-|
E|----------------------------------------0-0-0-0-0-0-0-0-0-0-0-0-|
                                         [X-X-X-X]

e|-----------------------------------------------------------------|
B|-----------------------------------------------------------------|
G|-----------------------------------------------------------------|
D|-----------------------------------------------------------------|
A|-5---5---5---5---5---5---5---5-4-3---3---3---3---3---3---3---3-4-|
E|-3-0-3-0-3-0-3-0-3-0-3-0-3-0-3-2-1-0-1-0-1-0-1-0-1-0-1-0-1-0-1-2-|

e|----------------------------------------------------------|
B|----------------------------------------------------------|
G|-------------------------------------------------9--------|
D|-------------------------------------------------9--------|
A|-5---5---5---5---5---5---5---5-4-3---3---3---3---7--------|
E|-3-0-3-0-3-0-3-0-3-0-3-0-3-0-3-2-1-0-1-0-1-0-1-0----------|

e|----------------------------------------------------------------|
B|----------------------------------------------------------------|
G|-7---7-7------12-7^---------------------------------------------|
D|-7---7-7------12-7^---------3-2-0-------------------------------|
A|-5---5-5------10-5^---------------3-2-0-2-2-2-2-2-2-2-2-2-2-2-2-|
E|----------------------------------------0-0-0-0-0-0-0-0-0-0-0-0-|
                                         [X-X-X-X-X-X-X-X-X-X-X-X]

e|-------------------------------------------------------------------------------|
B|-------------------------------------------------------------------------------|
G|-------------------------------------------------------------------------------|
D|-5-5-5-5-5-5-5-5-5-5-5-5-5-5-5-5-5-5-4-3-3-3-3-3-3-3-3-3-3-3-3-3-3-3-3-3-3-4-5-|
A|-5-5-5-5-5-5-5-5-5-5-5-5-5-5-5-5-5-5-4-3-3-3-3-3-3-3-3-3-3-3-3-3-3-3-3-3-3-4-5-|
E|-3-3-3-3-3-3-3-3-3-3-3-3-3-3-3-3-3-3-2-1-1-1-1-1-1-1-1-1-1-1-1-1-1-1-1-1-1-2-3-|

e|-----------------------------------------------------------------------|
B|-----------------------------------------------------------------------|
G|-------------------------------------------------------9-9-9-9-9-9-9-9-|
D|-5-5-5-5-5-5-5-5-5-5-5-5-5-5-5-5-5-5-4-3-3-3-3-3-3-3-3-9-9-9-9-9-9-9-9-|
A|-5-5-5-5-5-5-5-5-5-5-5-5-5-5-5-5-5-5-4-3-3-3-3-3-3-3-3-7-7-7-7-7-7-7-7-|
E|-3-3-3-3-3-3-3-3-3-3-3-3-3-3-3-3-3-3-2-1-1-1-1-1-1-1-1-----------------|

e|-----------------------------------------|
B|-----------------------------------------|
G|-7----7----7----7----7----7----7----7----|
D|-7----7----7----7----7----7----7----7----|
A|-5----5----5----5----5----5----5----5----|
E|-----------------------------------------|

e|-------------------------------------------------------------------------------|
B|-------------------------------------------------------------------------------|
G|-------------------------------------------------------------------------------|
D|-5-5-5-5-5-5-5-5-5-5-5-5-5-5-5-5-5-5-4-3-3-3-3-3-3-3-3-3-3-3-3-3-3-3-3-3-3-4-5-|
A|-5-5-5-5-5-5-5-5-5-5-5-5-5-5-5-5-5-5-4-3-3-3-3-3-3-3-3-3-3-3-3-3-3-3-3-3-3-4-5-|
E|-3-3-3-3-3-3-3-3-3-3-3-3-3-3-3-3-3-3-2-1-1-1-1-1-1-1-1-1-1-1-1-1-1-1-1-1-1-2-3-|

e|-----------------------------------------------------------------------|
B|-----------------------------------------------------------------------|
G|-------------------------------------------------------9-9-9-9-9-9-9-9-|
D|-5-5-5-5-5-5-5-5-5-5-5-5-5-5-5-5-5-5-4-3-3-3-3-3-3-3-3-9-9-9-9-9-9-9-9-|
A|-5-5-5-5-5-5-5-5-5-5-5-5-5-5-5-5-5-5-4-3-3-3-3-3-3-3-3-7-7-7-7-7-7-7-7-|
E|-3-3-3-3-3-3-3-3-3-3-3-3-3-3-3-3-3-3-2-1-1-1-1-1-1-1-1-----------------|

e|-----------------------------------------|
B|-----------------------------------------|
G|-7----7----7----7----7----7----7----7----|
D|-7----7----7----7----7----7----7----7----|
A|-5----5----5----5----5----5----5----5----|
E|-----------------------------------------|

e|-------------------------------------------------------------------------------|
B|-------------------------------------------------------------------------------|
G|-------------------------------------------------------------------------------|
D|-5-5-5-5-5-5-5-5-5-5-5-5-5-5-5-5-5-5-4-3-3-3-3-3-3-3-3-3-3-3-3-3-3-3-3-3-3-4-5-|
A|-5-5-5-5-5-5-5-5-5-5-5-5-5-5-5-5-5-5-4-3-3-3-3-3-3-3-3-3-3-3-3-3-3-3-3-3-3-4-5-|
E|-3-3-3-3-3-3-3-3-3-3-3-3-3-3-3-3-3-3-2-1-1-1-1-1-1-1-1-1-1-1-1-1-1-1-1-1-1-2-3-|

e|-----------------------------------------------------------------------|
B|-----------------------------------------------------------------------|
G|-------------------------------------------------------9-9-9-9-9-9-9-9-|
D|-5-5-5-5-5-5-5-5-5-5-5-5-5-5-5-5-5-5-4-3-3-3-3-3-3-3-3-9-9-9-9-9-9-9-9-|
A|-5-5-5-5-5-5-5-5-5-5-5-5-5-5-5-5-5-5-4-3-3-3-3-3-3-3-3-7-7-7-7-7-7-7-7-|
E|-3-3-3-3-3-3-3-3-3-3-3-3-3-3-3-3-3-3-2-1-1-1-1-1-1-1-1-----------------|

e|-----------------------------------------|
B|-----------------------------------------|
G|-7----7----7----7----7----7----7----7----|
D|-7----7----7----7----7----7----7----7----|
A|-5----5----5----5----5----5----5----5----|
E|-----------------------------------------|

e|-------------------------------------------------------------|
B|-------------------------------------------------------------|
G|-12-12-12-12-12-12-12-12-12-12-12-12-12-12-12-12-12-12-11-10-|
D|-12-12-12-12-12-12-12-12-12-12-12-12-12-12-12-12-12-12-11-10-|
A|-10-10-10-10-10-10-10-10-10-10-10-10-10-10-10-10-10-10--9--8-|
E|-------------------------------------------------------------|

e|-------------------------------------------------------------|
B|-------------------------------------------------------------|
G|-10-10-10-10-10-10-10-10-10-10-10-10-10-10-10-10-10-10-11-12-|
D|-10-10-10-10-10-10-10-10-10-10-10-10-10-10-10-10-10-10-11-12-|
A|--8--8--8--8--8--8--8--8--8--8--8--8--8--8--8--8--8--8--9-10-|
E|-------------------------------------------------------------|

e|-------------------------------------------------------------|
B|-------------------------------------------------------------|
G|-12-12-12-12-12-12-12-12-12-12-12-12-12-12-12-12-12-12-11-10-|
D|-12-12-12-12-12-12-12-12-12-12-12-12-12-12-12-12-12-12-11-10-|
A|-10-10-10-10-10-10-10-10-10-10-10-10-10-10-10-10-10-10--9--8-|
E|-------------------------------------------------------------|

e|--------------------------------------------|
B|--------------------------------------------|
G|-10-10-10-10-10-10-10-10-9----9----9--------|
D|-10-10-10-10-10-10-10-10-9----9----9--------|
A|--8--8--8--8--8--8--8--8-7----7----7--------|
E|--------------------------------------------|


| /  slide up
| \  slide down
| h  hammer-on
| p  pull-off
| ~  vibrato
| +  harmonic
| x  Mute note
===============================================================================
comments
We did not receive enough feedback on this tab! Please rate:
print report bad tab
1 2 3 4 5
I want to post or [tab]
guest
You may want to rate the tab now too:
select rating
Please do not post tabs as comments. Select "correction" instead!