Oops, an error
Loading. Please wait.

Jackass Bass Tab

version 2
version 2

Whole song

Interactive

217 views 3 this week
no commentswrite comment
1 2 3 4 5
please rate
add to favorites
launch autoscroll
font size
0
reset
guitar tuner
Tab Pro tools
  • play this tab
  • loop segment
  • change instrument
  • show fretboard
  • metronome
×
Best way to learn
"Jackass"
Autoscroll
slow
fast
+/-
esc
set tempo
stop
Contributor
Main riff  x6 ( after first 4x play 10 four times instead of ringing out)
G|--------------------------9-12-12-12-9-10-9-|
D|10-9-10~-10-9-10~-10-9-10-------------------|
A|--------------------------------------------|
E|--------------------------------------------|

Verse  x1
G|------------------------------------------9-12-12-12-9-10-9-|
D|----------------------------------10-9-10-------------------|
A|33--------33------------33----------------------------------|
E|-----11--------33333333------11-----------------------------|

Pre chorus  x1
G|-------------------------------------------------------------------|
D|-------------------------------------------------------------------|
A|33333333----------33333333----------33333333----------33333333/10>-|
E|---------11111111----------33333333----------11111111--------------|

Chorus 1  x1
G|----------------------------------------------------------------------|
D|----------------------------------------------------------------------|
A|00-8-8-3-33-----00-8-8-3-33-----00000000---------------10-10-10-10-10-|
E|------------333-------------333----------11111111-3333/---------------|

Main riff  x2

Verse  x1

Pre chorus  x1

Chorus 2  x1
G|----------------------------------------------------------------------|
D|----------------------------------------------------------------------|
A|00-8-8-3-33-----00-8-8-3-33-----00000000---------------10-10-10-10-10-|
E|------------333-------------333----------11111111-3333/---------------|

Main riff  x2

Chorus 3  x1
G|----------------------------------------------------------------------|
D|----------------------------------------------------------------------|
A|00-8-8-3-33-----00-8-8-3-33-----00000000-------------------1010887755-|
E|------------333-------------333----------11111111-33333333------------|

Ending  x3 (might be a bit off on the timing but youll figure it out.)
G|---------------------------------------------------------|
D|10-9-10--10-9-109-10-12-12/14-14-14-1514-1212-1214141212-|
A|---------------------------------------------------------|
E|---------------------------------------------------------|

Please rate and comment and any corrects are very welcome. Cheers and
have fun.
comments
We did not receive enough feedback on this tab! Please rate:
print report bad tab
1 2 3 4 5
I want to post or [tab]
guest
You may want to rate the tab now too:
select rating
Please do not post tabs as comments. Select "correction" instead!