Oops, an error
Loading. Please wait.

Moneys Not An Issue Bass Tab

699 views 1 this week
no commentswrite comment
1 2 3 4 5
please rate
add to favorites
launch autoscroll
font size
0
reset
guitar tuner
Tab Pro tools
  • play this tab
  • loop segment
  • change instrument
  • show fretboard
  • metronome
×
Best way to learn
"Moneys Not An Issue"
Autoscroll
slow
fast
+/-
esc
set tempo
stop
Contributor
Verse  x1
G|---------------------------------------------------------------|
D|---75-----75-----75-----------------------75-----75-----75-----|
A|023--75--3--75--3--75-------2222555555-023--75--3--75--3--75---|
E|-------75-----75-----75-3333------------------75-----75-----75-|

G|-----------------|
D|------------5555-|
A|----22225555-----|
E|3333-------------|

Pre Chorus  x1(14's not 1-4)
G|----------447540------------14------------------------------|
D|--33777755----------------14--33335323-55557535-------------|
A|55--------------3333532103----------------------3>--5-7-8>--|
E|------------------------------------------------------------|

G|-----------------------00505754-|
D|5>------------------------------|
A|----3>--2-0>--------------------|
E|--------------1>---3>-----------|

Chorus  x2
(Part 1)
G|------------------------------------|
D|------------------------------------|
A|33335303-00003035-------------------|
E|------------------11111111-33333333-|

(Part 2)  x1
(Feel free to supersize....)(Very fast triplets)  x1
G|--------------------------------|
D|----------------3>------5>------|
A|--------------------------------|
E|1>------3>----------------------|

Pre verse
G|--------------|
D|--------------|
A|3-3-3-3-3-3-3-|
E|--------------|

Verse  x1 (A liitle bit different but only timing)

Pre Chorus (teens(14's) not single)
G|----------4410975555754325--14101010101210910------------------------|
D|--33777755----------------14-----------------55557975-15-1414-1212-|
A|55-------------------------------------------------------------------|
E|---------------------------------------------------------------------|

G|---------------------------------00505754-|
D|----------5>------------------------------|
A|3-5-7-8>------3>--2-0>--------------------|
E|------------------------1>---3>-----------|

Chorus (part 1  x2)

Chorus (part 2  x1)  

Pre verse  x1

Verse  x1

Pre verse  x1

Chorus (part 1  x2)

Chorus (part 2  x1)

Pre verse  x1\2

Verse  x1

End on D|10~\--------|

Absolutely great fast song. Fun to play and im pretty proud of myself
for tabbing this one. I think its almost perfect maybe a few fills off
but yeah. Please rate and comment or if you have any corrections please
tell me. thanks.


comments
We did not receive enough feedback on this tab! Please rate:
print report bad tab
1 2 3 4 5
I want to post or [tab]
guest
You may want to rate the tab now too:
select rating
Please do not post tabs as comments. Select "correction" instead!