Oops, an error
Loading. Please wait.

Moving Up Tab

178 views 1 this week
no commentswrite comment
1 2 3 4 5
excellent!
x 1
add to favorites
launch autoscroll
font size
0
reset
how to read this tab
guitar tuner
Tab Pro tools
  • play this tab
  • loop segment
  • change instrument
  • show fretboard
  • metronome
Autoscroll
slow
fast
+/-
esc
set tempo
stop
The Vandals-----Moving Up--- The Quickening
Killer Song, Lots Of Fun To Play Viva La Vandals!
Tabbed By Zombiepunk22
Stanard Tuning One Guitar Plays Altohugh I Believe Warren Uses Small Amounts Of Looping, 
 (Side Note: * = Harmonics)

   Pick Scrape
e------------------------------------------------------------------------|
b------------------------------------------------------------------------|
g------------------------------------------------------------------------|
d------------------------------------------------------------------------|
a ///////////-17-17-17-16-16-16-14-14-14-12-12-12-11-11-11-9-9-9-7-7-7-5-|
E------------------------------------------------------------------------|

!Main Riff
e-----------------------------------------------------------------------|
b-----------------------------------------------------------------------|
g-------2---------------------------------------2-----------------------|
d----4----4-4-2-0-----------------------------4---4-4-2-0---------------|
a--5--------------4-2-0--2-3-2--2-2-0-2-0---5-------------4-2-0---2-2-0-|
E-----------------------3-----3---------------------------------3-------|
!Verse 1
              "Hey mom it's been fantastic since i'm on my own...
e-----------------------------------------------------------------------|
b-----------------------------------------------------------------------|
g---7-8-9----7-7-7-7-7-6-4-2-2-2-2---------2-2-2-2--7-7-7-7-7-6-4-2-2-2-|
d---7-8-9----7-7-7-7-7-6-4-2-2-2-2-2-2-2-2-2-2-2-2--7-7-7-7-7-6-4-2-2-2-|
a---5-6-7----5-5-5-5-5-4-2-0-0-0-0-2-2-2-2-0-0-0-0--5-5-5-5-5-4-2-0-0-0-|
E----------------------------------0-0-0-0------------------------------|

                      !Chorus  "Look out...
e----------------------------------------------------------------------|
b----------------------------------------------------------------------|
g-2---------7-8-9-----9----7*------ 9-----7*---------------------------|
d-2-2-2-2-2-7-8-9-----9---5*--7*----9---5*--7*-------------------------|
a-0-2-2-2-2-5-6-7-----7-7*------5*--7-7*------5*-----------------------|
E---0-0-0-0------------------------------------------------------------|

!Pre Chorus "I'd hate to take my chances...
e----------------------------------------------------------------------|
b----------------------------------------------------------------------|
g-9-9-9-9-9-7-9-13-13-13-----------------------------------------------|
d-9-9-9-9-9-7-9-13-13-13-11111111-111111111----------------------------|
a-7-7-7-7-7-5-7-11-11-11-11111111-9-9--9-9---repeat once---------------|
E------------------------9--9-9-9--------------------------------------|

back to verse , than chorus, than main riff followed by verse riff again than prechorus 
chorus, thats it! if any questions, comments,  corrections or requests zombiepunk22@yahoo.com
comments
We did not receive enough feedback on this tab! Please rate:
print report bad tab
1 2 3 4 5
I want to post or [tab]
guest
You may want to rate the tab now too:
select rating
Please do not post tabs as comments. Select "correction" instead!