Oops, an error
Loading. Please wait.

My Girlfriends Dead Tab

version 3
version 3

Whole song

Interactive

357 views 1 this week
no commentswrite comment
1 2 3 4 5
please rate
add to favorites
launch autoscroll
font size
0
reset
how to read this tab
guitar tuner
Tab Pro tools
  • play this tab
  • loop segment
  • change instrument
  • show fretboard
  • metronome
×
Best way to learn
"My Girlfriends Dead"
Autoscroll
slow
fast
+/-
esc
set tempo
stop
Contributor
Difficulty
Tuning
novice
D# G# C# F# A# D#
                           My Girlfriends Dead
-------------------------------------------------------------------------------
Tabbed by:Dr.Appetite
E-mail:Drappetite@aim.com
Just listen for the timing since I didn't do it.  You'll get it.


Tuning:Half Step Down

Intro: 
(Palm Mute)
e|-------------------|
B|-------------------|
G|-------------------|
D|-------------------|
A|-9-9-9-9-9-9-9-9-9-|
E|7-7-7-7-7-7-7-7-7--|

Verse:
e|--------------------------------------------------------------------------|
B|--------------------------------------------------------------------------|
G|------------------8----9----11--------------------------------------------|
D|---9----4----6----8----9----11----9---------------------------------------|
A|---9----4----6----6----7----9-----9---------------------------------------|
E|---7----2----4--------------------7---------------------------------------|

Chorus:(I don't want to talk about her...)
e|--------------------------------------------------------------------------|
B|--------------------------------------------------------------------------|
G|--------------------------------------------------------------------------|
D|----2----4----2----4----2----4----9---------------------------------------|
A|----2----4----2----4----2----4----9---------------------------------------|
E|----0----2----0----2----0----2----7---------------------------------------|

Chorus: Lead
e|--------------------------------------------------------------------------|
B|--------------------------------------------------------------------------|
G|-9-8--------------9-8---------------9-8-----------------------------------|
D|-----11-9-8-9-11~------11-9-8-9-11~-----11-9-8-9-11-9-8-9-9-9-8-8---------|
A|------------------------------------------------------------------11-11---|
E|--------------------------------------------------------------------------|

e|--------------------------------------------------------------------------|
B|--------------------------------------------------------------------------|
G|--------------------------------------------------------------------------|
D|--------------------------------------------------------------------------|
A|-9-9-7-7------------------------------------------------------------------|
E|---------11-11-9-9-7~-----------------------------------------------------|

Bridge: (My girlfriend's dead....)
e|---------------------------|  |-------------------------------------------|
B|---------------------------|  |-------------------------------------------|
G|-13-13-13-13---------------|  |---9---11----------------------------------|
D|-13-13-13-13-13-13-13-13---|X2|---9---11----9~----------------------------|
A|-11-11-11-11-13-13-13-13---|  |---7---9-----9~----------------------------|
E|-------------11-11-11-11---|  |-------------7~----------------------------|

e|---------------------------|  |-------------------------------------------|
B|---------------------------|  |-------------------------------------------|
G|-13-13-13-13---------------|  |---9---11----------------------------------|
D|-13-13-13-13-13-13-13-13---|X2|---9---11----9~----------------------------|
A|-11-11-11-11-13-13-13-13---|  |---7---9-----9~----------------------------|
E|-------------11-11-11-11---|  |-------------7~----------------------------|

Chorus:(I don't want to talk about her...)
e|--------------------------------------------------------------------------|
B|--------------------------------------------------------------------------|
G|--------------------------------------------------------------------------|
D|----2----4----2----4----2----4----9---------------------------------------|
A|----2----4----2----4----2----4----9---------------------------------------|
E|----0----2----0----2----0----2----7---------------------------------------|

Chorus: Lead
e|--------------------------------------------------------------------------|
B|--------------------------------------------------------------------------|
G|-9-8--------------9-8---------------9-8-----------------------------------|
D|-----11-9-8-9-11~------11-9-8-9-11~-----11-9-8-9-11-9-8-9-9-9-8-8---------|
A|------------------------------------------------------------------11-11---|
E|--------------------------------------------------------------------------|

e|--------------------------------------------------------------------------|
B|--------------------------------------------------------------------------|
G|--------------------------------------------------------------------------|
D|--------------------------------------------------------------------------|
A|9-9-7-7-------------------------------------------------------------------|
E|---------11-11-9-9-7~-----------------------------------------------------|

Whistles:
e|--------------------------------------------------------------------------|
B|--------------------------------------------------------------------------|
G|--------------------------------------------------------------------------|
D|--------------------------------------------------------------------------|
A|--9-9-9-9-9-9-9-9---------------------------------------------------------|
E|-7-7-7-7--7-7-7-7---------------------------------------------------------|

Verse:
e|--------------------------------------------------------------------------|
B|--------------------------------------------------------------------------|
G|------------------8----9----11--------------------------------------------|
D|---9----4----6----8----9----11----9---------------------------------------|
A|---9----4----6----6----7----9-----9---------------------------------------|
E|---7----2----4--------------------7---------------------------------------|

Chorus:(I don't want to talk about her...)
e|--------------------------------------------------------------------------|
B|--------------------------------------------------------------------------|
G|--------------------------------------------------------------------------|
D|----2----4----2----4----2----4----9---------------------------------------|
A|----2----4----2----4----2----4----9---------------------------------------|
E|----0----2----0----2----0----2----7---------------------------------------|

Chorus: Lead
e|--------------------------------------------------------------------------|
B|--------------------------------------------------------------------------|
G|-9-8--------------9-8---------------9-8-----------------------------------|
D|-----11-9-8-9-11~------11-9-8-9-11~-----11-9-8-9-11-9-8-9-9-9-8-8---------|
A|------------------------------------------------------------------11-11---|
E|--------------------------------------------------------------------------|

e|--------------------------------------------------------------------------|
B|--------------------------------------------------------------------------|
G|--------------------------------------------------------------------------|
D|--------------------------------------------------------------------------|
A|-9-9-7-7------------------------------------------------------------------|
E|---------11-11-9-9-7~-----------------------------------------------------|

Chorus Lead 2nd Time:
e|--12-11-9-7/---------12-11-9-7/------------12-11-9------------------------|
B|-----------11/12/14------------11/12/14------------12-11-12-14-12-11-12~--|
G|--------------------------------------------------------------------------|
D|--------------------------------------------------------------------------|
A|--------------------------------------------------------------------------|
E|--------------------------------------------------------------------------|
************************************

| /   slide up
| \   slide down
| h   hammer-on
| p   pull-off
| ~   vibrato
| +   harmonic
| x   Mute note
| b   Bend
| pb  Pre-bend
| br  Bend release
| pbr Pre-bend release
| brb Bend release bend

************************************
comments
We did not receive enough feedback on this tab! Please rate:
print report bad tab
1 2 3 4 5
I want to post or [tab]
guest
You may want to rate the tab now too:
select rating
Please do not post tabs as comments. Select "correction" instead!