Oops, an error
Loading. Please wait.

Pirates Life Bass Tab

version 1
version 1

Whole song

1,484 views 1 this week
3 commentsread comments
1 2 3 4 5
please rate
add to favorites
launch autoscroll
font size
0
reset
guitar tuner
Tab Pro tools
  • play this tab
  • loop segment
  • change instrument
  • show fretboard
  • metronome
×
Best way to learn
"Pirates Life"
Autoscroll
slow
fast
+/-
esc
set tempo
stop
"Pirate's Life" - The Vandals
Tabbed by Matt Hamann

I drastically changed this, especially the solo, which
I will give pretty much all of the credit of this updated solo to
a guy called JRGXXX.

Verse:

A -0---0-0-0-0-0-0--3----5---0---0-0-0-0-0-0--88--7--5--


Chorus:

A --2-2-2-2-2-2-2-2-0-0-0-0-0-0-0-0----------------------------------
E ----------------------------------2-2-2-2-2-2-2-2-2-2-2-2-2-2-2-2--

Bass solo (Hardy hardy har):

D ------------------7-7-------------------------------------------7--
A --7-7-7-7-7-5-7-7---------5-6---7-7-7-7-5--5--8--8-----5-5-77-8----
E ----------------------7----------------------------5-5-------------

Comments or suggestions to matt1@jps.net or gartuck@hotmail.com
Homepage: http://www.jps.net/matt1/index.html
comments
We did not receive enough feedback on this tab! Please rate:
print report bad tab
1 2 3 4 5
3 comments total.
0 reply
dead_kennedy66 wrote on December 2 2002, 12:00 am

solo:

g--------------------------------------
d--------------------------------------
a-------------------5-5----------------
e---5-5-5-5-5-5-5-5-----1-3-5---5-6-6-6

g--------------------------
d--------------------------
a--------------------------
e---3-3-5-5-1-1-3-3-3-5-6-8



I'm the only one who can get this right!

dead_kennedy66@yahoo.com

-1 reply
Ekra wrote on May 2 2007, 11:38 am


g-------------------------------------------------------
d-------------------------------------------------------
a-------------------4~----------------------------------
e---4-4-4-4-4-4-4-4-----4-0-2/4--0--5-5-5-5-4-4--0-2-2/7

This is my version... It's wrong, i know, but it's easy and sounds like the original solo... or not.

0 reply
mdc_ivan wrote on December 20 2015, 10:18 am

This bass tab of the song Pirate's Life of the punk rock band The Vandals is clearly wrong:
-it's lack of formatting;
-it's lack of accuracy;
-riffs are wrong.
PLEASE REMOVE THIS SHITTY TAB!

I want to post or [tab]
guest
You may want to rate the tab now too:
select rating
Please do not post tabs as comments. Select "correction" instead!