Oops, an error
Loading. Please wait.

Pizza Tran Bass Tab

version 1
version 1

Whole song

Interactive

123 views 1 this week
no commentswrite comment
1 2 3 4 5
please rate
add to favorites
launch autoscroll
font size
0
reset
guitar tuner
Tab Pro tools
  • play this tab
  • loop segment
  • change instrument
  • show fretboard
  • metronome
×
Best way to learn
"Pizza Tran"
Autoscroll
slow
fast
+/-
esc
set tempo
stop
Contributor
Difficulty
novice
Pizza Tran by The Vandals
From Fear of a Punk Planet
Tabbed by chargerbandit
Tabbed 6.3.2012

Great bass riff and awesome guitar solos.

(/) Slide Up  (\) Slide Down  (h) Hammer On  (p) Pull Off  (b) Bend (r) Release (v) 
Vibrato (l) Let ring

main riff - repeats a lot through the song
G|-----------------------------------|
D|----------2222-3333----------------|
A|-33333333--------------------------|
E|-----------------------------------|

small interlude
G|-----------------------------------|
D|---2-0---2-0-----------------------|
A|-3-----3-----3---------------------|
E|-----------------------------------|

riff2 - usually pre-main solo,repeat 2x
G|-----------------------------------|
D|-----------------------------------|
A|-----------------------------------|
E|-3333-6666-3333-6666---------------|

riff3 - "pizza tran delivers..."
G|-----------------------------------|
D|-5-2---5-2---5-2-3-0---3-0---3-0---|
A|-----3-----5---------2-----2-------|
E|-----------------------------------|

The song ends on a C note.

I won't be writing down the order,its just like this:

-a lot of main riff
-small interlude
-riff2
---------------- ABOVE REPEATED A LOT MORE
-riff3
-more main riff
-riff3
-more main riff
-end

Thats it!
For more awesome tablatures check: http://chargerbandit.zxq.net/
comments
We did not receive enough feedback on this tab! Please rate:
print report bad tab
1 2 3 4 5
I want to post or [tab]
guest
You may want to rate the tab now too:
select rating
Please do not post tabs as comments. Select "correction" instead!