Oops, an error
Loading. Please wait.

Buffalo Night Life Tab

214 views 1 this week
3 commentsread comments
1 2 3 4 5
3 more votes to show rating
add to favorites
launch autoscroll
font size
0
reset
how to read this tab
guitar tuner
Autoscroll
slow
fast
+/-
esc
set tempo
stop
Help us to improve Ultimate-Guitar.com Take our survey!
×
Author
Difficulty
novice
-------------------------------------------------------------------------------
                             BUFFALO NIGHT LIFE - The Varsity
-------------------------------------------------------------------------------
BAND WEBSITE:
http://www.thevarsityonline.com/index2.html


Tabbed by: emarjan
Email: emma@redefine.net

I think these are the correct tabs. Leave comments, and rate it to tell me what you think of it.
Im only 13, so dont post any hate comments if it is wrong. Enjoy!!

Tuning: EADGBe - Standard


INTRO
e|-------------------------------------------------------------------------------|
B|-------------------------------------------------------------------------------|
G|---5---------------------------------------------------------------------------|
D|---5----x8---------------------------------------------------------------------|
A|---7---------------------------------------------------------------------------|
E|-------------------------------------------------------------------------------|

VERSE
e|----------------------------------------------l---------------------------------|
B|----------------------------------------------l-----end on this-----------------|
G|----------------7-7---------------------------l---------------------------------|
D|---5-5---7-7---7-7---5-5-----x2--------------l------------5---------------------|
A|---5-5---7-7---5-5---5-5---------------------l------------5---------------------|
E |---3-3---5-5---------3-3---------------------l------------3--------------------|

e|------------------------------------------------------------------------|
B|------------------------------------------------------------------------|
G|-----------------7-7---------------------7-7---7-7-7---7-7-7---7-7------|
D|----5-5---7-7---7-7---5-5------x4-------7-7---7-7-7---7-7-7---7-7-------|
A|----5-5---7-7---5-5---5-5---------------5-5---5-5-5---5-5-5---5-5-------|
E|----3-3---5-5---------3-3-----------------------------------------------|

CHORUS (you can work out the strumming - its easy)
e|------------------------------------------------------------------------------|
B|------------------------------------------------------------------------------|
G|---7-----4--------------------------------------------------------------------|
D|---7--5--4--5-------x2--------------------------------------------------------|
A|---5--5--2--5-----------------------------------------------------------------|
E|------3-----3-----------------------------------------------------------------|

VERSE
e|------------------------------------------------------------------------|
B|------------------------------------------------------------------------|
G|-----------------7-7---------------------7-7---7-7-7---7-7-7---7-7------|
D|----5-5---7-7---7-7---5-5------x4-------7-7---7-7-7---7-7-7---7-7-------|
A|----5-5---7-7---5-5---5-5---------------5-5---5-5-5---5-5-5---5-5-------|
E|----3-3---5-5---------3-3-----------------------------------------------|

 THEN PLAY CHORUS x1

BRIDGE (work out the strumming)
e|----------------------------------------------------------------------------|
B|----------------------------------------------------------------------------|
G|---7------------------------------------------------------------------------|
D|---7------------------------------------------------------------------------|
A|---5------------------------------------------------------------------------|
E|----------------------------------------------------------------------------|

THEN PLAY CHORUS (until they stop)

OUTRO
e|-----------------------------------------------------------------------------|
B|------10--7------7--8--7-----------------------------------------------------|
G|---7----------7-----------9--7--6------x2------------------------------------|
D|-----------------------------------------------------------------------------|
A|-----------------------------------------------------------------------------|
E|-----------------------------------------------------------------------------|

e|---------------------------------------------------------------------------|
B|------10--7------7--8--7---------8--7--------------------------------------|
G|---7----------7-----------9--7---------9--7--------------------------------|
D|---------------------------------------------------------------------------|
A|---------------------------------------------------------------------------|
E|---------------------------------------------------------------------------|

WOOHOO!! that took quite a while -  hope you like it!
emma marjan
===============================================================================
Suggest correction
Give kudos to tab author, rate the tab!
1 2 3 4 5
comments
print report bad tab
3 comments total.
0 reply
guitarchick111 217 Oct 06, 2007 12:56 PM

i think the intro goes like this
e|----------------------|
B|----------------------|
G|--11~--11~--11~--11~--|
D|--12~--12~--12~--12~--|
A|--10~---0~---9~--10~--|
E|----------------------|

0 reply
guitarchick111 217 Oct 06, 2007 01:00 PM

and the second verse the other guitar does something like this
e|---------------------------|
B|------10-------------------|
G|----11--11-----------------|
D|--12-------12-12-12p11-11--|
A|---------------------------|
E|---------------------------|

0 reply
guitarchick111 217 Oct 06, 2007 01:02 PM

i'm just gonna make another tab

guest
You may want to rate the tab now too:
select rating
Wanna post a correction for this tab? Suggest correction