Oops, an error
Loading. Please wait.

Grey Lynn Park chords

166 views 3 this week
no commentswrite comment
1 2 3 4 5
2 more votes to show rating
add to favorites
×
Save as Personal and add changes to this tab that will be seen only by you. Learn more ›
×
You can save this tab as Personal to edit and correct it or add notes. All changes will be seen only by you. Learn more »
launch autoscroll
font size
0
reset
transpose
0
reset
display chords
guitar tuner
edit
Autoscroll
slow
fast
+/-
esc
set tempo
stop
Author
Difficulty
About this tab version
Simplified version of this song in chords, with the tabs for the instrumental and chords if the user wants to follow the original version. Was this info helpful? Yes No
Strumming Is this strumming pattern correct? Yes No
From the top till the instrumental 113 bpm
1
&
2
&
3
&
4
&
Listen
Intro

D Bm G

Tabs for the chords (if you want to play exactly like the original version)
    D    Bm   G
e|--5-----2---3-----|
B|--7-----3---3-----|
G|--7-----4---4-----|
D|------------------|
A|------------------|
E|------------------|  
Though they say no heart can break......


    G    Em   A
e|--7----7----5-----|
B|--8----8----5-----|
G|--7----9----6-----|
D|------------------|
A|------------------|
E|------------------| 
Been through a thousand yesterdays...

    G    Bm   
e|--3----2---------|
B|--3----3---------|
G|--4----4---------|
D|-----------------|
A|-----------------|
E|-----------------| 
Now I'm walking in the dark....

Verse
D                              Bm     G
  Though they say no heart can break
D                                       Bm    G
  There ain't no end to trouble two can make
G                         Em
  Been through a thousand yesterdays
                         A
  Not every step I can retrace

Chorus
                         G     Bm       G
  Now I'm walking in the dark      ohhhhhh
Bm               G    Bm
  In Grey Lynn Park     ohhhhhh

Verse 
D                       Bm   G
  I was born and then I died
D                                Bm    G
  Don't keep no record of either side
G                                        Em
  But somehow I lose these thoughts with ease
                   A
  Under Pohutukawa trees
 
Chorus
                         G     Bm       G
  Now I'm walking in the dark      ohhhhhh
Bm               G    Bm       G
  In Grey Lynn Park     ohhhhhh

Instrumental:

A C#m repeatedly till end

Solo
riff:
e|------------------------------------------------------------------------|
B|------------------------------------------------------------------------|
G|------------------------------------------------------------------------|
D|------------------------------------------------------------------------|
A|-0-0~-0-2-4~-442200-0~-0-2---------0-0~-0-2-4~-442200-0~-0-2------------|
E|---------------------------4~-44220--------------------------4~-44220---|

Outro:
(with full tremolo effect on your stompbox)

e|-17~---20--17~-17-------17---20-17-17|
B|----18-----18~-18----18~--18-------18|  Repeat the second bar till the end
G|-------------------19----------------|
D|-------------------------------------|
A|-------------------------------------|
E|-------------------------------------| 

            
            
Suggest correction
Creating personal tab
Creating personal tab
You can edit any tab online and save it as your Personal.

You can edit, replace or remove any tab part or add personal notes – all changes will be seen only by you.

Personal tabs can be accessed anytime from any device, even offline.
Learn more »
Give kudos to tab author, rate the tab!
1 2 3 4 5
comments
print report bad tab
guest
You may want to rate the tab now too:
select rating
Wanna post a correction for this tab? Suggest correction