Oops, an error
Loading. Please wait.

Nowhere Man tab

version 2
version 2

Whole song

2,295 views 3 this week
no commentswrite comment
1 2 3 4 5
x 3
add to favorites
×
Save as Personal and add changes to this tab that will be seen only by you. Learn more ›
×
You can save this tab as Personal to edit and correct it or add notes. All changes will be seen only by you. Learn more »
launch autoscroll
font size
0
reset
how to read this tab
guitar tuner
edit
Autoscroll
slow
fast
+/-
esc
set tempo
stop
The Veils – Nowhere Man


After searching the Internet for a complete tab of this song,
I gave up and decided to finish off the incomplete tab on here.
This is not supposed to be 100% accurate and I’m sure its not as this is my first ever tab,
but its pretty close and its definitely an improvement on the incomplete one!
So please feel free to add/suggest any further improvements!

Tuning: EADGBe

**capo on 5th fret**

|----------0------|---------3-1-0--|-----------------|---------------|
|------------1----|----------------|----------1-0----|--------1-0----|
|-------0------0--|----------------|--------0-----0--|------0-----0--|
|----2------------|------0---------|----0h2----------|--0h2----------|    x4
|--3--------------|----2-----------|--3--------------|---------------|
|-----------------|--3-------------|-----------------|---------------|


|--------0------|
|----------0----|
|------------1--|
|------2--------|   x4
|----2----------|
|--0------------|


|--------0------|---------0------|--------0------|--------0------|
|----------1----|-----------1----|----------1----|----------1----|
|------2-----2--|------0------0--|------0-----0--|------0-----0--|
|----2----------|----2-----------|----2----------|----2----------|
|--0------------|----------------|---------------|---------------|
|---------------|--3-------------|--2------------|--1------------|


|--------1------|
|----------1----|
|------------2--|
|------3--------|   x2
|----3----------|
|--1------------|


|--------1------|
|----------1----|
|------------1--|
|------3--------|   x2
|----3----------|
|--1------------|


|----------------------3---------------------------------|
|----------1-----------------------1h3-----3p1-----1-0---|
|--------0---0-------0---0-------0-----0-------0-------2-|
|----0h2-----------0-----------2---------2-------2-------|
|--3-----------3-2---------2-0---------------------------|
|--------------------------------------------------------|


|--------1-----------3-1-0--------------------------|
|----------1-----------------------1-0-----------1--|
|------------2-------------------0-----0-------0----|
|------3-----------0---------0h2-----------0h2------|
|----3-----------2---------3-------------3----------|
|--1-----------3------------------------------------|


Repeat all this 3 times, then for the bridge strum E for 4 bars, and then strum the Am 
above, then play the chorus once more and end on C.
Suggest correction
Creating personal tab
Creating personal tab
You can edit any tab online and save it as your Personal.

You can edit, replace or remove any tab part or add personal notes – all changes will be seen only by you.

Personal tabs can be accessed anytime from any device, even offline.
Learn more »
Give kudos to tab author, rate the tab!
1 2 3 4 5
comments
print report bad tab
guest
You may want to rate the tab now too:
select rating
Wanna post a correction for this tab? Suggest correction