Oops, an error
Loading. Please wait.
We have an official After Hours tab made by UG professional guitarists. Check out the tab »
×

After Hours bass

version 1
version 1

Whole song

  • This version is played staccato and has the verse ... Show more

Interactive

598 views 24 this week
no commentswrite comment
1 2 3 4 5
1 last vote to show rating
add to favorites
×
Save as Personal and add changes to this tab that will be seen only by you. Learn more ›
×
You can save this tab as Personal to edit and correct it or add notes. All changes will be seen only by you. Learn more »
launch autoscroll
font size
0
reset
guitar tuner
edit
Autoscroll
slow
fast
+/-
esc
set tempo
stop
Author
Difficulty
About this tab version
This version is played staccato and has the verse and chorus variants, as well as timestamps. standard tuning. Was this info helpful? Yes No
all of the notes are played staccato (short), unless it has a tilde (~) 



[Verse]
            00.00-00.17
G|---------------------------------------------------------------------------|
D|---------------------------------------------------------------------------|
A|--------------------3-3-3-3-/-8-8-8-8--------------------------------------|
E|-6-6-6-6-\-3-3-3-3---------------------------------------------------------| x2


[Chorus]
           00.18-00.33
G|---------------------------------------------------------------------------|
D|---------------------------------------------------3-3---------------------|
A|-----------------6-6-6-6-6~--------------------3-3-----1-------------------|
E|-6-6-6-6-6-6-6-6-------------6-6-6-6-\-3-3~-3------------------------------|


[Verse]
            00.34-00.50
G|---------------------------------------------------------------------------|
D|---------------------------------------------------------------------------|
A|--------------------3-3-3-3-/-8-8-8-8--------------------------------------|
E|-6-6-6-6-\-3-3-3-3---------------------------------------------------------| x2


[Chorus]
           00.50-01.06
G|---------------------------------------------------------------------------|
D|------------------------------------------------------3-3------------------|
A|------------------6-------6~----------------------3-3-----1----------------|
E|-6-6-6-6-6-6-6-6---------------6-6-6-6-\-3-3-3-3---------------------------|

[Bridge]
         01.07-01.25
G|----------------------------------------------------------------------------|
D|----------------------------------------------------------------------------|
A|-5-5-5-5-4---------4-5-5-----5-5-4-4-/-10-10-10-10----10-10----10-10-----8~-|
E|-----------5-5-5-5-------5-5-----------------------10-------10-------8~-----|

[Verse]
            01.26-01.41
G|---------------------------------------------------------------------------|
D|---------------------------------------------------------------------------|
A|--------------------3-3-3-3-/-8-8-8-8--------------------------------------|
E|-6-6-6-6-\-3-3-3-3---------------------------------------------------------| 

G|---------------------------------------------------------------------------|
D|---------------------------------------------------------------------------|
A|--------------------0-3-3-3-3-/-8-8-8-8------------------------------------|
E|-6-6-6-6-\-3-3-3-3---------------------------------------------------------|


[Outro]
           01.42-02.07
G|---------------------------------------------------------------------------|
D|-----------------0------------------------------------------/3-3-----------|
A|---------------------6-6-6-6-6~---------------------0--3-3--------1-0------|
E|-6-6-6-6-6-6-6-6-----------------6-6-6-6-\-3-3-3-3--------------------3-3--|

G|---------------------------------------------------------------------------|
D|-----------/3-3-----------------------/3-3---------------------------------|
A|-0--3-3-----------1-0------0-3-0-3-3--------1------------------------------|
E|---------------------4-3~--------------------------------------------------|



************************************

| x   Dead note
| g   Grace note
| (n) Ghost note
| h   Hammer-on
| p   Pull-off
| r   Release
| >   Accented note
| t   Tapping
| b   Bend
| br  Bend release
| pb  Pre-bend
| pbr Pre-bend release
| /   Slide up
| \   Slide down
| ~   Vibrato
| s   Slap
| P   Pop
| PM  Palm mute
| TR  Trill
| N   Tremolo

************************************
Suggest correction
Creating personal tab
Creating personal tab
You can edit any tab online and save it as your Personal.

You can edit, replace or remove any tab part or add personal notes – all changes will be seen only by you.

Personal tabs can be accessed anytime from any device, even offline.
Learn more »
Give kudos to tab author, rate the tab!
1 2 3 4 5
comments
print report bad tab
guest
You may want to rate the tab now too:
select rating
Wanna post a correction for this tab? Suggest correction