Oops, an error
Loading. Please wait.

Candy Says tab

version 1
version 1

Whole song

  • The "lead guitar part" consists of arpeggiated cho... Show more

Interactive

157 views 21 this week
no commentswrite comment
1 2 3 4 5
3 more votes to show rating
add to favorites
×
Save as Personal and add changes to this tab that will be seen only by you. Learn more ›
×
You can save this tab as Personal to edit and correct it or add notes. All changes will be seen only by you. Learn more »
launch autoscroll
font size
0
reset
how to read this tab
guitar tuner
edit
Autoscroll
slow
fast
+/-
esc
set tempo
stop
About this tab version
The "lead guitar part" consists of arpeggiated chords with variations. In this version I've tried to keep the tab as true to the original as possible. Was this info helpful? Yes No
Tempo: Q=90

e|--------------10------------|--------------9-------------|
B|-----------10----10----10---|-----------10----10----10---|
G|--------11----------11------|--------11----------11------|
D|-----12---------------------|-----11---------------------|
A|----------------------------|----------------------------|
E|----------------------------|----------------------------|


e|--------------8--8----------|--------------7-------------|
B|-----------10-------8-------|-----------7-----7----------|
G|--------10------------------|--------8-----------8-------|
D|-----10----------------10---|-----9-----------------9----|
A|----------------------------|----------------------------|
E|----------------------------|----------------------------|


e|--------------7-------------|--------5--------5----------|
B|-----------8-----8----------|-----------5--------5-------|
G|--------9--------------9----|--------------6--------6----|
D|-----9--------------9-------|-----7----------------------|
A|----------------------------|----------------------------|
E|----------------------------|----------------------------|


e|-----------------10-7-------|--------------5-------------|
B|--------------7-------------|-----------5-----5-----5----|
G|-----7-----7----------------|--------6-----------6-------|
D|--------7--------------7----|-----7----------------------|
A|----------------------------|----------------------------|
E|----------------------------|----------------------------|


e|--------------10------------|--------------9-------------|
B|-----------10----10----10---|-----------10----10---------|
G|--------11----------11------|--------11----------11------|
D|-----12---------------------|-----11----------------11---|
A|----------------------------|----------------------------|
E|----------------------------|----------------------------|


e|--------------8-------------|--------------7-------------|
B|-----------10----10---------|-----------7-----7----------|
G|--------10-------------10---|--------8-----------8-------|
D|-----10-------------10------|-----9-----------------9----|
A|----------------------------|----------------------------|
E|----------------------------|----------------------------|


e|--------------7-------------|--------------5-------------|
B|-----------8-----8----------|-----------5-----5----------|
G|--------9-----------9-------|--------6-----------6-------|
D|-----9-----------------9----|-----7-----------------7----|
A|----------------------------|----------------------------|
E|----------------------------|----------------------------|


e|-----------------10-7-------|--------------5-------------|
B|--------------7--------7----|-----------5-----5----------|
G|-----7-----7----------------|--------6-----------6-------|
D|--------7-------------------|-----7-----------------7----|
A|----------------------------|----------------------------|
E|----------------------------|----------------------------|


e|--------------5-------------|--------------3-------------|
B|-----------7-----7----------|-----------3-----3-----3----|
G|--------7--------------7----|--------4-----------4-------|
D|-----7--------------7-------|-----5----------------------|
A|----------------------------|----------------------------|
E|----------------------------|----------------------------|


e|--------------0-------------|--------------5-------------|
B|-----------0-----0----------|-----------5-----5-----5----|
G|--------1-----------1-------|--------6-------------------|
D|-----2-----------------2----|-----7--------------7-------|
A|----------------------------|----------------------------|
E|----------------------------|----------------------------|


e|--------------5-------------|--------------3-------------|
B|-----------7-----7----------|-----------3-----3-----3----|
G|--------7-----------7-------|--------4-----------4-------|
D|-----7-----------------7----|-----5----------------------|
A|----------------------------|----------------------------|
E|----------------------------|----------------------------|


e|-----------0----------------|-----------5-----------5----|
B|--------0-----0-----0-------|--------5-----5-------------|
G|-----1-----------1-----1----|-----6-----------6--6-------|
D|--2-------------------------|--7-------------------------|
A|----------------------------|----------------------------|
E|----------------------------|----------------------------|


e|-----------3-----------3----|-----------3----------------|
B|--------5-----------5-------|-----------------------3----|
G|-----5-----------5----------|--4-----4-----4-----4-------|
D|--5-----------5-------------|-----5-----------5----------|
A|----------------------------|----------------------------|
E|----------------------------|----------------------------|


e|-----------5----------------|-----------3----------------|-------|
B|--------5-----5--------5----|--------5-------------------|-------|
G|-----6--------------6-------|-----5----------------------|-------|
D|--7--------------7----------|--5-------------------------|-------|
A|----------------------------|----------------------------|-------|
E|----------------------------|----------------------------|-------|


e|--------------10------------|--------------9-------------|
B|-----------10----10----10---|-----------10----10----10---|
G|--------11----------11------|--------11----------11------|
D|-----12---------------------|-----11---------------------|
A|----------------------------|----------------------------|
E|----------------------------|----------------------------|


e|--------------8-------------|--------------7-------------|
B|-----------10----10----10---|-----------7-----7----------|
G|--------10----------10------|--------8-----------8-------|
D|-----10---------------------|-----9-----------------9----|
A|----------------------------|----------------------------|
E|----------------------------|----------------------------|


e|--------------7-------------|--------------5-------------|
B|-----------8-----8----------|-----------5-----5-----5----|
G|--------9-----------9-------|--------6-----------6-------|
D|-----9-----------------9----|-----7----------------------|
A|----------------------------|----------------------------|
E|----------------------------|----------------------------|


e|-----------------10-7-------|--------------5-------------|
B|--------------7-------------|-----------5-----5----------|
G|-----7-----7-----------7----|--------6--------------6----|
D|--------7-------------------|-----7--------------7-------|
A|----------------------------|----------------------------|
E|----------------------------|----------------------------|


e|--------------10------------|--------------9-------------|
B|-----------------10---------|-----------10----10---------|
G|-----------11----------11---|--------11-------------11---|
D|--------12----------12------|-----11-------------11------|
A|-----12---------------------|----------------------------|
E|----------------------------|----------------------------|


e|--------------8-------------|--------------7-------------|
B|-----------10----10---------|-----------7-----7----------|
G|--------10----------10------|--------8-----------8-------|
D|-----10----------------10---|-----9-----------------9----|
A|----------------------------|----------------------------|
E|----------------------------|----------------------------|


e|--------------7-------------|--------------5-------------|
B|-----------8-----8-----8----|-----------5-----5-----5----|
G|--------9-----------9-------|--------6-----------6-------|
D|-----9----------------------|-----7----------------------|
A|----------------------------|----------------------------|
E|----------------------------|----------------------------|


e|-----------------10-7-------|-----------5--5-------------|
B|-----------7--10-------10---|--------5--------5----------|
G|--------7-------------------|-----6--------------6-------|
D|-----7----------------------|--7--------------------7----|
A|----------------------------|----------------------------|
E|----------------------------|----------------------------|


e|-----------5----------------|-----------3----------------|
B|--------7-----7--------7----|--------3-----3-------------|
G|-----7--------------7-------|-----4-----------4-----4----|
D|--7--------------7----------|--5-----------------5-------|
A|----------------------------|----------------------------|
E|----------------------------|----------------------------|


e|-----------0--0-------------|--------------5-------------|
B|--------0--------0----------|-----------5-----5-----5----|
G|-----1--------------1-------|--------6-----------6-------|
D|--2--------------------2----|-----7----------------------|
A|----------------------------|----------------------------|
E|----------------------------|----------------------------|


e|-----------5----------------|--------------3-------------|
B|--------7-----7-------------|-----------3-----3-----3----|
G|-----7-----------7-----7----|--------4-----------4-------|
D|--7-----------------7-------|-----5----------------------|
A|----------------------------|----------------------------|
E|----------------------------|----------------------------|


e|-----------0--0-------------|--------------5-------------|
B|--------0--------0----------|-----------5-----5----------|
G|-----1--------------1-------|--------6-----------6-------|
D|--2--------------------2----|-----7-----------------7----|
A|----------------------------|----------------------------|
E|----------------------------|----------------------------|


e|----------------------------|----------------------------|
B|--------5-----------5-------|--------3-----------3-------|
G|-----5-----5-----5-----5----|-----4-----4-----4-----4----|
D|--5-----------5-------------|--5-----------5-------------|
A|----------------------------|----------------------------|
E|----------------------------|----------------------------|


e|----------------------------|-----------3----------------|-------|
B|--------5-----------5-------|--------5-------------------|-------|
G|-----6-----6-----6-----6----|-----5----------------------|-------|
D|--7-----------7-------------|--5-------------------------|-------|
A|----------------------------|----------------------------|-------|
E|----------------------------|----------------------------|-------|


e|--------------------5-------|-----------5----------------|
B|--------7--------7-----7----|-----------------7----------|
G|-----7--------7-------------|--------------------7-------|
D|--7--------7----------------|--7--------------------7----|
A|----------------------------|----------------------------|
E|----------------------------|----------------------------|


e|----------------------------|----------------------------|
B|----------------------------|----------------------------|
G|-----------4-----------4----|--------4-----------4-------|
D|--5-----5-----------5-------|-----5-----------5-----5----|
A|-----5-----------5----------|--5--------5----------------|
E|----------------------------|----------------------------|


e|----------------------------|--------2-------------------|
B|--------2-----------2-------|-----3-----3--------3-------|
G|-----2-----------2-----2----|--2--------------2-----2----|
D|--0--------0----------------|----------------------------|
A|----------------------------|----------------------------|
E|----------------------------|----------------------------|


e|----------------------------|----------------------------|
B|----------------------------|----------------------------|
G|--------4-----------4-------|-----------4-----------4----|
D|-----5-----------5-----5----|--------5-----------5-------|
A|--5--------5----------------|--5--------------5----------|
E|----------------------------|----------------------------|


e|----------------------------|----------------------------|
B|--------2-----------2-------|-----------2-----------2----|
G|-----2-----------2-----2----|--------2-----------2-------|
D|--0--------0----------------|--0--------------0----------|
A|----------------------------|----------------------------|
E|----------------------------|----------------------------|


e|----------------------------|----------------------------|
B|----------------------------|----------------------------|
G|--------4-----------4-------|--------4-----------4-------|
D|-----5-----------5-----5----|-----5-----------5-----5----|
A|--5--------5----------------|--5--------5----------------|
E|----------------------------|----------------------------|


e|-----------2----------------|--2-----------2-------------|
B|--------3--------------3----|-----------3-----3-----3----|
G|-----2--------------2-------|--------2-----------2-------|
D|--0--------------0----------|----------------------------|
A|----------------------------|----------------------------|
E|----------------------------|----------------------------|


e|-----------3--------3-------|----------------------------|
B|--------3--------3----------|----------------------------|
G|-----4--------4--------4----|--/4~------/4~------4-------|
D|--5-------------------------|-----------------5-----5----|
A|----------------------------|----------------------------|
E|----------------------------|----------------------------|


e|--------2--2----------------|-----2--2-----5-----2-------|
B|-----3--------3-------------|--2--------2----------------|
G|--2--------------2-----2----|----------------------------|
D|--------------------0-------|----------------------------|
A|----------------------------|----------------------------|
E|----------------------------|----------------------------|


e|----------------------------|--------------------3-------|-------||
B|-----3-----3----------------|-----------------3----------|--/7---||
G|--------4s----4--------4~---|--/4~-----------------------|-------||
D|--5-------------------------|-----------5----------------|-------||
A|----------------------------|----------------------------|-------||
E|----------------------------|----------------------------|-------||


Tablature Legend
************************************

| /  Slide up
| ~  Vibrato
 

************************************

            
            
Suggest correction
Creating personal tab
Creating personal tab
You can edit any tab online and save it as your Personal.

You can edit, replace or remove any tab part or add personal notes – all changes will be seen only by you.

Personal tabs can be accessed anytime from any device, even offline.
Learn more »
Give kudos to tab author, rate the tab!
1 2 3 4 5
comments
print report bad tab
guest
You may want to rate the tab now too:
select rating
Wanna post a correction for this tab? Suggest correction