Oops, an error
Loading. Please wait.

European Son Tab

7,842 views 15 this week
1 commentread comment
1 2 3 4 5
1 last vote to show rating
add to favorites
×
Save as Personal and add changes to this tab that will be seen only by you. Learn more ›
×
You can save this tab as Personal to edit and correct it or add notes. All changes will be seen only by you. Learn more »
save as personal
new!
launch autoscroll
font size
0
reset
how to read this tab
guitar tuner
Autoscroll
slow
fast
+/-
esc
set tempo
stop
the bass line should look something like this......

Bass intro:
---------------------------|Repeat throughout song
----------5----------------|
---3-4-5----5-4-3----------|
-5-------------------------|

Guitar:

you killed your european son
you spit on those under 21
but now your blue cars are gone you better say so long

---------------------------------------------------------------------------|
-------------------------------------------3-3-3-3-3-3---------------------|
-7-7--x--7--Repeat-------------------------4-4-4-4-4-4----repeat-for-2nd---|
-7-7--x--7---------------------------------5-5-5-5-5-5----------verse------|
-5-5--X--5---------------------------------x-x-x-x-x-x---------------------|
-------------------------------------------3-3-3-3-3-3---------------------|

after the smashing of the plate comes the solo which is mainly improv.
Suggest correction
Give kudos to tab author, rate the tab!
1 2 3 4 5
comments
print report bad tab
1 comment total.
+1 reply
HanMeGitarren 130 Jan 09, 2005 07:00 PM

I believe the bass-part actually is this way
-----------------
-----------------
-----------------
---------6-5-3---
---3-4-5-------5-
-5---------------

guest
Wanna post a correction for this tab? Suggest correction