Oops, an error
Loading. Please wait.

Heroin tab

version 3
version 3

Whole song

Interactive

33,863 views 75 this week
2 commentsread comments
1 2 3 4 5
x 23
add to favorites
×
Save as Personal and add changes to this tab that will be seen only by you. Learn more ›
×
You can save this tab as Personal to edit and correct it or add notes. All changes will be seen only by you. Learn more »
launch autoscroll
font size
0
reset
how to read this tab
guitar tuner
backing track
0:00
0:00
edit
Autoscroll
slow
fast
+/-
esc
set tempo
stop
Author
-------------------------------------------------------------------------------
                             HEROIN - Velvet Underground
-------------------------------------------------------------------------------
Tabbed by: Ben Aitken
Email: ben.j.aitken@gmail.com

Tuning: 1/2 step down (EbAbDbGbBbEb)

e|--------------------------2-------------------------------------------------|
B|--------------------------3-----------------------0-----------------------3-|
G|--2-----------------------2-----------2-----2--2--0-----------------------2-|
D|--0--0--0--0--0--0--0--0--0--0--0--0--0--0--0--0--0--0--0--0--0--0--0--0--0-|
A|----------------------------------------------------------------------------|
E|----------------------------------------------------------------------------|

e|----------------------------------------------|
B|----------------------0-----------------------|
G|-2--2--2--2--2--2--2--0-----------------------|
D|-0--0--0--0--0--0--0--0--0--0--0--0--0--0--0--|
A|----------------------------------------------|
E|----------------------------------------------|

e|--2-----------------------------------------------2-----------------------------------------------|
B|--3-----------------------0-----------------------3-----------------------0-----------------------|
G|--2-----2--2-----2--2--2--0-----------------------2-----2--2--2--2--2--2--0-----------------------|
D|--0--0--0--0--0--0--0--0--0--0--0--0--0--0--0--0--0-----0--0--0--0--0--0--0--0--0--0--0--0--0--0--|
A|--------------------------------------------------------------------------------------------------|
E|--------------------------------------------------------------------------------------------------|

 0:30
e|--2----------2-----2-------------0-----0--2--------3--2-----2---------------0----0h2-|
B|--3-----3-------------0-----0-------------3-----3--------------0-------0---------3---|
G|--2--2----------2-----0--0----------0-----2--2-----------2-----0----0------------2---|
D|--0-------------------0-------------------0--------------------0-----------------0---|
A|-------------------------------------------------------------------------------------|
E|-------------------------------------------------------------------------------------|

e|-------2-----2---------------0----|
B|----3-----------0-------0---------|
G|-2--------2-----0----0------------|
D|----------------0-----------------|
A|----------------------------------|
E|----------------------------------|

e|--2--------3--2-----2----------0-------------0h2----------2-----2---------------0----2-|
B|--3-----3--------------0-------0----0-----0--3-------3-------------0-------0---------3-|
G|--2--2-----------2-----0----0----------0-----2----2----------2-----0----0------------2-|
D|--0--------------------0---------------------0---------------------0-----------------0-|
A|---------------------------------------------------------------------------------------|
E|---------------------------------------------------------------------------------------|

e|-------3--2-----2------------------------|
B|----3--------------0-------0----0-----0--|
G|-2-----------2-----0----0----------0-----|
D|-------------------0---------------------|
A|-----------------------------------------|
E|-----------------------------------------|

 Repeat with variations for verse (Fig. 1)
e|--2------------2-----2---------------------0--2--------3--2-----2---------------------0--|
B|--3-------3-------------0-------0----0--------3-----3--------------0-------0----0--------|
G|--2----2----------2-----0----0----------0-----2--2-----------2-----0----0----------0-----|
D|--0---------------------0---------------------0--------------------0---------------------|
A|-----------------------------------------------------------------------------------------|
E|-----------------------------------------------------------------------------------------|

 "'Cause it makes me feel like a man..." (Fig. 2)
e|--------2-----------2--2------------------------|
B|--3-----3-----------3--3--0-----0-----0----0----|
G|--2-----2-----------2--2--0-----0-----0----0----|
D|--0-----0-----------0--0--0-----0-----0----0----|
A|------------------------------------------------|
E|------------------------------------------------|

Repeat Fig. 1 w/ variations for verse, Fig. 2 w/ variations for chorus

 After "closing in on death"
e|--2----2--------2--7-----9----7----2----2--------2--7-----9----7----|
B|--3----3--------3--8----10----8----3----3--------3--8----10----8----|
G|--2----2--------2--7-----9----7----2----2--------2--7-----9----7----|
D|--------------------------------------------------------------------|
A|--------------------------------------------------------------------|
E|--------------------------------------------------------------------|

 After "all the dead bodies piled up in mounds"
e|--7----7-----9----7----2--2--2--2--2--2--2--2--------------------------|
B|--8----8----10----8----3--3--3--3--3--3--3--3--0--0--0--0--0--0--0--0--|
G|--7----7-----9----7----2--2--2--2--2--2--2--2--0--0--0--0--0--0--0--0--|
D|-----------------------0--0--0--0--0--0--0--0--0--0--0--0--0--0--0--0--|
A|-----------------------------------------------------------------------|
E|-----------------------------------------------------------------------|
Repeat second part until after "and I guess I just don't know", then Fig. 1 until end


************************************

| h  Hammer-on

************************************
Suggest correction
Creating personal tab
Creating personal tab
You can edit any tab online and save it as your Personal.

You can edit, replace or remove any tab part or add personal notes – all changes will be seen only by you.

Personal tabs can be accessed anytime from any device, even offline.
Learn more »
comments
print report bad tab
2 comments total.
0 reply
AnrBjotk 40 Jul 17, 2016 11:52 PM

I'm no expert, but this sounds spot on! Thank you.

0 reply
mwasiak593 10 Apr 21, 2017 07:56 AM

really good

guest
You may want to rate the tab now too:
select rating
Wanna post a correction for this tab? Suggest correction