Oops, an error
Loading. Please wait.

Heroin Tab

version 4
version 4

Whole song

Interactive

12,736 views 9 this week
no commentswrite comment
1 2 3 4 5
worth learning
x 5
add to favorites
launch autoscroll
font size
0
reset
how to read this tab
guitar tuner
Tab Pro tools
  • play this tab
  • loop segment
  • change instrument
  • show fretboard
  • metronome
×
Best way to learn
"Heroin"
Autoscroll
slow
fast
+/-
esc
set tempo
stop
Contributor
#----------------------------------PLEASE NOTE--------------------------------#
#This file is the author's own work and represents their interpretation of the#
#song. You may only use this file for private study, scholarship, or research.#
#-----------------------------------------------------------------------------#
#-- File created with Instab - http://www.pconline.com/~smcarey/instab.html --#
#-----------------------------------------------------------------------------#

Author/Artist: Velvet Underground
Title: Heroin

A Arpeggio


Tuning (c# A D f# a d), Down ~ 10%, (c#, D) Down ~ 20%
Live Standard Tuning, Down ~ 10%, (E, D) Down ~ 20%
Key: (D + C#)



----|-------------|--|----------------------------|--|
----|-------------|--|-8----------------4---------|--|
----|-------------|--|-7----------------4---------|--|
----|-------------|--|-6----------------4---------|2x|
----|-4--4--4--4--|--|---4-4-4-4-4-4-4----4-4-4---|--|
----|-------------|--|----------------------------|--|
   

  Intro                A                A  




----|-----------------------------------------------------------|
----|-8-------8---8-4-------4---4--8------9-8---8--4----4-4---4-|
----|-7----7----7---4----4---------7---7------7----4------------|
----|-6--6----------4--4------4----6-6-------------4--4-----4---|
----|-----------------------------------------------------------|
----|-----------------------------------------------------------|
 

   Verse             A              A               A




----|---------|
----|-8--9----|
----|-7--7----|
----|-6--8----|
----|-4--9----|
----|---------|
  

  Chorus 


----|--------------------------|
----|-8--8--8-8--9-9--9--11-9--|
----|-7--7--7-7--7-7--7--9--7--|
----|-6--6--6-6--8-8--8--10-8--|
----|-4--4--4-4--9-9--9--11-9--|
----|--------------------------|
  

  Chorus Pt.2 
comments
print report bad tab
I want to post or [tab]
guest
You may want to rate the tab now too:
select rating
Please do not post tabs as comments. Select "correction" instead!