Oops, an error
Loading. Please wait.

Ill Be Your Mirror Chords

version 1
version 1

Whole song

Interactive

145,725 views 462 this week
4 commentsread comments
1 2 3 4 5
x 50
add to favorites
launch autoscroll
font size
0
reset
transpose
0
reset
display chords
guitar tuner
×
Best way to learn
"Ill Be Your Mirror"
Autoscroll
slow
fast
+/-
esc
set tempo
stop
Capo
5th fret
Capo on 5th fret ("A" here is ACTUALLY a D, but play an A as if there were no
capo...)


[Intro]

e|-2-0-2-0-2-3-3-5-3-0-----------------|
B|-3---------0-------------------------|
G|-2---------0-------------------------| repeat for intro
D|-0---------0-------------------------|
A|-----------2-------------------------|
E|-----------3-------------------------|


[Verse]

A              D                       G                     A
I'll be your mirror, reflect what you are in case you don't know
               D                    G                      A
I'll be the wind the rain and the sunset to lighten your door
                     D
To show that you're home


[Chorus]

                     G        A         D
When you think the night has seen your mind
                     G      A     D
That inside you are twisted and unkind
                  G        A       D
Let me stand to show that you are blind
                      Em                G      A   
Please put down your hands cause I see yoooooou

e|------------------------|
B|------------------------|
G|------------------------|
D|-0-2-2-0-2--0-2-2-0-2---|
A|-0-0-0-0-0--0-0-0-0-0---|
E|------------------------|


[Intro]

e|-2-0-2-0-2-3-3-5-3-0-----------------|
B|-3---------0-------------------------|
G|-2---------0-------------------------| x2
D|-0---------0-------------------------|
A|-----------2-------------------------|
E|-----------3-------------------------|


[Verse 2]

A            D                     G                         A
I find it hard to believe you don't know The beauty that you are
            D                    G                   A                         D
But if you don't let me be your eyes, A hand in your darkness, so you won't be afraid


[Chorus]

                     G         A        D
When you think the night has seen your mind
                    G        A   D
That inside you are twisted and unkind
                 G         A       D
Let me stand to show that you are blind
                      Em                 G
Please put down your hands 'Cause I see you

e|------------------------|
B|------------------------|
G|------------------------|
D|-0-2-2-0-2--0-2-2-0-2---|
A|-0-0-0-0-0--0-0-0-0-0---|
E|------------------------|

[Outro]

D              G
I'll be your mirror x4
(Reflect what you are)
Suggest correction
comments
print report bad tab
4 comments total. Showing first comments.
+1 reply
hinafu 185 Jul 07, 2010 03:50 PM

Excellent!

+3 reply
cubs 311 Nov 09, 2011 02:01 PM

this is correct and stuff, but, shit, i hate it when people don't include the full lyrics. i was looking forward to sing this. i only sung half ;(

0 reply
Juslotting 10 May 07, 2013 06:09 PM

Good tab, I think it sounds better with capo on 4 but my guitar is not sounding 100% right now

guest
You may want to rate the tab now too:
select rating
Wanna post a correction for this tab? Suggest correction