Oops, an error
Loading. Please wait.

Ill Be Your Mirror tab

version 1
version 1

Whole song

Interactive

47,714 views 66 this week
1 commentread comment
1 2 3 4 5
x 14
add to favorites
×
Save as Personal and add changes to this tab that will be seen only by you. Learn more ›
×
You can save this tab as Personal to edit and correct it or add notes. All changes will be seen only by you. Learn more »
launch autoscroll
font size
0
reset
how to read this tab
guitar tuner
backing track
0:00
0:00
edit
Autoscroll
slow
fast
+/-
esc
set tempo
stop
Capo 5

       {D}             {G}          {D}              {G}
e|--2---0--0h2-0-2--3--3---5-3-0-2---2-0--0h2-0-2--3--3--5-3-0--|
B|---------0---0------0-0--7-5-3---3------0---0------0-0-7-5-3--|
G|--2---2--------2--0------------2-----2--------2--0------------|
D|--------------------------------------------------------------|
A|--------------------------------------------------------------|
E|--------------------------------------------------------------|

e|--2---2-0--0h2-0-2--3--3--5-3-0-2---2-0--0h2-0-2--3--3---5-3-0--|
B|----3------0---0------0-0-7-5-3---3------0---0------0-0--7-5-3--|
G|--2-----2--------2--0-----------2-----2--------2--0-------------|
D|----------------------------------------------------------------|
A|----------------------------------------------------------------|
E|----------------------------------------------------------------|

  I'll be your mirror ...               in case you don't know ...
   {A}             {D}              {G}            {A}
e|-----5---5-3-2-0--2--2--0h2-0---2-----3--5-3-0--------5---3------|
B|--2---------------3--3--3-----3----0--0--7-5-3-0--2-x-2---2------|
G|--------------------------------------------------2-x-2---2------|
D|-----------------------------------------------------------------|
A|-----------------------------------------------------------------|
E|-----------------------------------------------------------------|

  - the wind .....         the light on your door ...
   {D}          {G}            {A}         {D}
e|--2---0-0h2-0-2--3--3--5-3-0-------5-3-2-0-----2--0h2-0h2-0h2-0h2--|
B|--------0---0----0-0-0-7-5-3-0--2-----------3--3--3---3---3---3----|
G|--2---2-------2-----------------2-----------2----------------------|
D|-------------------------------------------------------------------|
A|-------------------------------------------------------------------|
E|-------------------------------------------------------------------|

  - night has seen your mind .... twisted and unkind ....
   {G   / A  }{D}                 {G  / A  }{D}
e|-----3----2-----2--0h2-0-0h2-0-----3----2-----2--2-----2---------|
B|--0-----2----3--3--3-----3-------0----2----3--3----3-------------|
G|--0-----2----2-------------------0----2----2---------2-----------|
D|-----------------------------------------------------------------|
A|-----------------------------------------------------------------|
E|-----------------------------------------------------------------|

  - show that you are blind
   {G   / A  }{D}
e|-----3----3-----2--2-----2------|
B|--0-----2----3--3----3----------|
G|--0-----2----2---------2--------|
D|--------------------------------|
A|--------------------------------|
E|--------------------------------|

  - your hands          'cause I see you
  {Em}              {Em}              {G}
e|--------0---0------------0---0-------------3---3-------|
B|------0---0---0--------0---0---0---------0---0---0-----|
G|----0-----------0----0-----------0-----0-----------0---|
D|--2----------------2-----------------0-----------------|
A|-------------------------------------------------------|
E|-------------------------------------------------------|

   {A}                 {A}
e|---------------------------------------|
B|---------------------------------------|
G|--2--x---2-2---2-2-2--x---2-2---2-2-2--|   
D|--2--x---0-0h2-2-0-2--x---0-0h2-2-0-2--|
A|--0--x---0-0---0-0-0--x---0-0---0-0-0--|
E|---------------------------------------|


************************************

| h  Hammer-on
| x  Dead note

************************************

            
            
Suggest correction
Creating personal tab
Creating personal tab
You can edit any tab online and save it as your Personal.

You can edit, replace or remove any tab part or add personal notes – all changes will be seen only by you.

Personal tabs can be accessed anytime from any device, even offline.
Learn more »
comments
print report bad tab
1 comment total.
+1 reply
hinafu 185 Jan 06, 2010 11:06 AM

Good Tab!!

guest
You may want to rate the tab now too:
select rating
Wanna post a correction for this tab? Suggest correction