Oops, an error
Loading. Please wait.

Stephanie Says tab

version 1
version 1

Whole song

Interactive

48,952 views 54 this week
4 commentsread comments
1 2 3 4 5
x 14
add to favorites
×
Save as Personal and add changes to this tab that will be seen only by you. Learn more ›
×
You can save this tab as Personal to edit and correct it or add notes. All changes will be seen only by you. Learn more »
launch autoscroll
font size
0
reset
how to read this tab
guitar tuner
edit
Autoscroll
slow
fast
+/-
esc
set tempo
stop
Velvet Underground - Stephanie Says


Tabbed by: Mads Due Jacobsen
Date: 15/05-07

Form: Intro
      Verse x2
      Bridge
      Chorus
      Intro
      Verse x2
      Bridge
      Chorus
      Kontrast
      Chorus    
      Outro

Tuning: Standard


[Intro]

    C         Em       Am       G
e|---------8--------7--------5--------3---|
B|-------8--------8--------5--------3-----|
G|-----9--------9--------5--------4-------|  x2
D|--10--------9--------7--------5---------|
A|----------------------------------------|
E|----------------------------------------|


[Verse]

    C         Em       Am       F
e|---------8--------7--------5-----------8--|          
B|-------8--------8--------5----------10----|          
G|-----9--------9--------5---------10-------|  x2      
D|--10--------9--------7--------10----------|          
A|------------------------------------------|          
E|------------------------------------------|          

    C         Em       Am
e|---------8--------7--------5--------5---|          
B|-------8--------8--------5--------5-----|          
G|-----9--------9--------5--------5-------|            
D|--10--------9--------7--------7---------|          
A|----------------------------------------|          
E|----------------------------------------|          

    Dm                G
e|--------5--------5--------7--------7----|          
B|------6--------6--------8--------8------|          
G|----7--------7--------7--------7--------|          
D|--7--------7--------9--------9----------|          
A|----------------------------------------|          
E|----------------------------------------|         


[Bridge]

e|--------7--------7----|          
B|------8--------8------|          
G|----7--------7--------|          
D|--9--------9----------|          
A|----------------------|          
E|----------------------|                                                          


[Chorus]

    C   F   C   F   C   F   C   G   C   G
     
e|--0---1---0---1---0---1---0---3---0---3---|          
B|--1---1---1---1---1---1---1---3---1---3---|          
G|--0---2---0---2---0---2---0---4---0---4---|          
D|--2---3---2---3---2---3---2---5---2---5---|          
A|--3---3---3---3---3---3---3---5---3---5---|          
E|--x---1---x---1---x---1---x---3---x---3---|  


[Kontrast]

e|--------5--------5--------7--------7----|          
B|------6--------6--------8--------8------|          
G|----7--------7--------7--------7--------|          
D|--7--------7--------9--------9----------|          
A|----------------------------------------|          
E|----------------------------------------|


e|---------8--------7--------5---------8--|
B|-------8--------8--------5---------8----|
G|-----9--------9--------5---------9------|  
D|--10--------9--------7--------10--------|
A|----------------------------------------|
E|----------------------------------------|


e|--------5--------5--------7--------7----|          
B|------6--------6--------8--------8------|          
G|----7--------7--------7--------7--------|          
D|--7--------7--------9--------9----------|          
A|----------------------------------------|          
E|----------------------------------------|


[Outro]

e|---------8--------7--------5--------3---|  
B|-------8--------8--------5--------3-----|
G|-----9--------9--------5--------4-------|  
D|--10--------9--------7--------5---------|
A|----------------------------------------|
E|----------------------------------------|

      C

e|----8>----|  
B|----8>----|
G|----9>----|  
D|---10>----|
A|---10>----|
E|----8>----|

END


| x  Mute note
| >  Let ring
==================================================

            
            
Suggest correction
Creating personal tab
Creating personal tab
You can edit any tab online and save it as your Personal.

You can edit, replace or remove any tab part or add personal notes – all changes will be seen only by you.

Personal tabs can be accessed anytime from any device, even offline.
Learn more »
comments
print report bad tab
4 comments total. Showing first comments.
0 reply
sloppyjoe24 826 Jun 15, 2007 08:32 AM

high-five

-1 reply
Who66 1,196 Sep 29, 2008 05:07 PM

try a capo at the fifth fret and play in G. seems more likely.

+1 reply
glassinthegrass 30 Oct 13, 2010 08:11 AM

uh, don't think a capo and playing in G is necessary. This is great as is.

guest
You may want to rate the tab now too:
select rating
Wanna post a correction for this tab? Suggest correction