Oops, an error
Loading. Please wait.
We have an official Sunday Morning tab made by UG professional guitarists. Check out the tab »
×
12,342 views 36 this week
1 commentread comment
1 2 3 4 5
x 18
add to favorites
×
Save as Personal and add changes to this tab that will be seen only by you. Learn more ›
×
You can save this tab as Personal to edit and correct it or add notes. All changes will be seen only by you. Learn more »
launch autoscroll
font size
0
reset
guitar tuner
edit
Autoscroll
slow
fast
+/-
esc
set tempo
stop
Tuning: Drop D, slightly sharper than standard.

[Intro]
G|----------------------------------------------------------------| 
D|-10\3-------------------------------------------------------10\-| 
A|----------------------------------------------------------------| 
D|----------------------------------------------------------------| 

[Verse] 
Sunday morning 
G|-----------5-2--------------------------------------------------| 
D|-3-3---3-------3---------------2--------------------------------| 
A|-----------------1-1---1---3-5----------------------------------| 
D|----------------------------------------------------------------| 

Praise the dawning 
G|-----------5-2--------------------------------------------------| 
D|-3-3---3-------3---------------2--------------------------------| 
A|-----------------1-1---1---3-5----------------------------------| 
D|----------------------------------------------------------------| 

It's just a restless feeling by my side 
G|----------------------------------------------------------------| 
D|-3-3---3-2-----2-0-0---0---0-2-3-5-5---5---3-5-3---------------2| 
A|-------------------------------------------------3-3---3---3-5--| 
D|----------------------------------------------------------------| 

Early dawning 
G|-----------5-2--------------------------------------------------| 
D|-3-3---3-------3---------------2--------------------------------| 
A|-----------------1-1---1---3-5----------------------------------| 
D|----------------------------------------------------------------| 

Sunday morning 
G|-----------5-2--------------------------------------------------| 
D|-3-3---3-------3---------------2--------------------------------| 
A|-----------------1-1---1---3-5----------------------------------| 
D|----------------------------------------------------------------| 

It's just the wasted years so close behind 
G|----------------------------------------------------------------| 
D|-3-3---3-2-----2-0-0---0---0-2-3-5-5---5---3-5-3---------------2| 
A|-------------------------------------------------3-3---3---3-5--| 
D|----------------------------------------------------------------| 

[Chorus] 
Watch out, the world's behind you 
G|-----------5-2--------------------------------------------------| 
D|-3-3---3-------3---------------2--------------------------------| 
A|-----------------1-1---1---3-5----------------------------------| 
D|----------------------------------------------------------------|
 
There's always someone around you who will 
G|-----------5-2--------------------------------------------------| 
D|-3-3---3-------3------------------------------------------------| 
A|-----------------1-1---1---1-1-3--------------------------------| 
D|----------------------------------------------------------------| 

Call, it's nothing at all 
G|----------------------------------------------------------------| 
D|---------------------------------1---0-1---0-1-0---------------2| 
A|-----------------------------3-5-----------------3---2-3---3-5--| 
D|-5---3-5---3-5-3-5---3-5---5------------------------------------| 

[Verse 2] 
Sunday morning 
G|-----------5-2--------------------------------------------------| 
D|-3-3---3-------3---------------2--------------------------------| 
A|-----------------1-1---1---3-5----------------------------------| 
D|----------------------------------------------------------------| 

And I'm falling 
G|-----------5-2--------------------------------------------------| 
D|-3-3---3-------3---------------2--------------------------------| 
A|-----------------1-1---1---3-5----------------------------------| 
D|----------------------------------------------------------------| 
I've got a feeling I don't want to know 
G|----------------------------------------------------------------| 
D|-3-3---3-2-----2-0-0---0---0-2-3-5-5---5---3-5-3---------------2| 
A|-------------------------------------------------3-3---3---3-5--| 
D|----------------------------------------------------------------| 

Early dawning 
G|-----------5-2--------------------------------------------------| 
D|-3-3---3-------3---------------2--------------------------------| 
A|-----------------1-1---1---3-5----------------------------------| 
D|----------------------------------------------------------------| 

Sunday morning 
G|-----------5-2--------------------------------------------------| 
D|-3-3---3-------3---------------2--------------------------------| 
A|-----------------1-1---1---3-5----------------------------------| 
D|----------------------------------------------------------------| 

It's all the streets you crossed not so long ago 
G|----------------------------------------------------------------| 
D|-3-3---3-2-----2-0-0---0---0-2-3-5-5---5---3-5-3---------------2| 
A|-------------------------------------------------3-3---3---3-5--| 
D|----------------------------------------------------------------| 

[Chorus 2] 
Watch out, the world's behind you 
G|-----------5-2--------------------------------------------------| 
D|-3-3---3-------3---------------2--------------------------------| 
A|-----------------1-1---1---3-5----------------------------------| 
D|----------------------------------------------------------------| 

There's always someone around you who will 
G|-----------5-2--------------------------------------------------| 
D|-3-3---3-------3------------------------------------------------| 
A|-----------------1-1---1---1-1-3--------------------------------| 
D|----------------------------------------------------------------| 

Call, it's nothing at all 
G|----------------------------------------------------------------| 
D|---------------------------------1---0-1---0-1-0---------------2| 
A|-----------------------------3-5-----------------3---2-3---3-5--| 
D|-5---3-5---3-5-3-5---3-5---5------------------------------------| 

[Verse 3] 
(guitar solo) 
G|-----------5-2--------------------------------------------------| 
D|-3-3---3-------3---------------2--------------------------------| 
A|-----------------1-1---1---3-5----------------------------------| 
D|----------------------------------------------------------------| 

G|-----------5-2--------------------------------------------------| 
D|-3-3---3-------3---------------2--------------------------------| 
A|-----------------1-1---1---3-5----------------------------------| 
D|----------------------------------------------------------------| 

G|----------------------------------------------------------------| 
D|-3-3---3-2-----2-0-0---0---0-2-3-5-5---5---3-5-3---------------2| 
A|-------------------------------------------------3-3---3---3-5--| 
D|----------------------------------------------------------------| 

[Chorus 3]
Watch out, the world's behind you 
G|-----------5-2--------------------------------------------------| 
D|-3-3---3-------3---------------2--------------------------------| 
A|-----------------1-1---1---3-5----------------------------------| 
D|----------------------------------------------------------------| 

There's always someone around you who will 
G|-----------5-2--------------------------------------------------| 
D|-3-3---3-------3------------------------------------------------| 
A|-----------------1-1---1---1-1-3--------------------------------| 
D|----------------------------------------------------------------| 

Call, it's nothing at all 
G|----------------------------------------------------------------| 
D|---------------------------------1---0-1---0-1-0---------------2| 
A|-----------------------------3-5-----------------3---2-3---3-5--| 
D|-5---3-5---3-5-3-5---3-5---5------------------------------------| 

[Verse 4] (repeat and fade out) 
Sunday morning 
G|-----------5-2--------------------------------------------------| 
D|-3-3---3-------3---------------2--------------------------------| 
A|-----------------1-1---1---3-5----------------------------------| 
D|----------------------------------------------------------------|


************************************

| \  Slide down 

************************************

            
            
Suggest correction
Creating personal tab
Creating personal tab
You can edit any tab online and save it as your Personal.

You can edit, replace or remove any tab part or add personal notes – all changes will be seen only by you.

Personal tabs can be accessed anytime from any device, even offline.
Learn more »
comments
print report bad tab
1 comment total.
0 reply
minagon 10 Feb 23, 2013 02:40 AM

Thank you very much for this. Its almost right.

guest
You may want to rate the tab now too:
select rating
Wanna post a correction for this tab? Suggest correction