Oops, an error
Loading. Please wait.

Guitar Boogie Shuffle Tab

version 1
version 1

Intro

Interactive

28,498 views 21 this week
5 commentsread comments
1 2 3 4 5
x 9
add to favorites
launch autoscroll
font size
0
reset
how to read this tab
guitar tuner
×
Best way to learn
"Guitar Boogie Shuffle"
Autoscroll
slow
fast
+/-
esc
set tempo
stop
Author
[Part 1]
e|-----------------|
B|-----------------|
G|-----------------|  (x2)
D|---------2-------|
A|-----2-4---4-2---|
E|-0-4-----------4-|

[Part 2]
e|----------------|
B|----------------|
G|--------2-------|
D|----2-4---4-2---|
A|-0-4----------4-|
E|----------------|

[Part 1]
e|-----------------|
B|-----------------|
G|-----------------|
D|---------2-------|
A|-----2-4---4-2---|
E|-0-4-----------4-|

[Part 3]
e|------------------|
B|------------------|
G|------------------|
D|------------------|
A|-2-4-5-4-2--------|
E|-----------5-4-2--|

e|------------|
B|------------|
G|------------|
D|--------2-2-|
A|----2-4-----|
E|-0-4--------|
Suggest correction
comments
print report bad tab
5 comments total. Showing first comments.
0 reply
ern 10 Mar 20, 2007 08:46 PM

this is such a great song.show it in the tab.you need to listen to the ventures play this song and redo the tab.

0 reply
Bws193 50 Jun 21, 2007 11:44 AM

ya agreed some of its not rite

0 reply
Kraziekhat 62,684 Aug 31, 2007 03:15 AM

I learned to play this when the Ventures
first got top of the Hit Parade in early '60's.
This tab is slightly different than the original
but not much. It's a good job, though. I've heard many
variations of it over the last 45 yrs. and they're all good.
I always believe in experimenting. KK.

guest
You may want to rate the tab now too:
select rating
Wanna post a correction for this tab? Suggest correction