Oops, an error
Loading. Please wait.

James Bond Theme Tab

version 1
version 1

Whole song

Interactive

20,427 views 24 this week
1 commentread comment
1 2 3 4 5
x 4
add to favorites
launch autoscroll
font size
0
reset
how to read this tab
guitar tuner
backing track
0:00
0:00
Autoscroll
slow
fast
+/-
esc
set tempo
stop
Author
Tuning
E A D G B E
James Bond Theme            Tabbed By richie102990
Standard Tuning

Intro
e|-------------|-------------|
B|-------------|-------------|
G|-------------|-------------|
D|-------------|-------------|> x4
A|-2-----3-----|-4-----3-----|
E|-------------|-------------|

Main Riff
e|-------------------------|-------------------------|
B|-------------------------|-------------------------|
G|-------------------------|-------------------------| 
D|-------------------------|-------------------------|> x2
A|-------------------------|-------------------------|
E|-0--2-2-2--2----0--0--0--|-0--3-3-3--3----2--2—-2—-|

e|-------------------------|-------------------------|
B|-------------------------|-------------------------|
G|-------------------------|-------------------------| 
D|-------------------------|-------------------------|
A|-------------------------|-------------------------|
E|-0--2-2-2--2----0--0--0--|-0--3-3-3--3----2--1—-0—-|

End of Main Riff
e|-------------------------|-------------------------|
B|-------------------------|-------------------------|
G|-------------------------|-------------------------|
D|-1--0--------------------|-------------------------|
A|-------------------2--0--|-2-----------------------|
E|-------------------------|-------------------------|

Interlude
e|---------------------|----------------------|
B|---------------------|----------------------|
G|--------8--7---------|----------------------|
D|-----5--------5--8--9|--5--7--5-----2-------|
A|--7------------------|-----------2----------|
E|---------------------|----------------------|

e|---------------------|----------------------|
B|---------------------|----------------------|
G|--------8--7---------|----------------------|
D|-----5--------5--8--9|--5--7--5--2----------|
A|--7------------------|--------------2-------|
E|---------------------|----------------------|

e|---------------------|----------------------|
B|---------------------|----------------------|
G|--------8--7---------|----------------------|
D|-----5--------5--8--9|--5--7--5-----2-------|
A|--7------------------|-----------2----------|
E|---------------------|----------------------|

End of Interlude
e|-------------------------------------|
B|-------------------------------------|
G|--4--4------4--4------4--4-4-4-------|
D|--4--4------4--4------4--4-4-4-------|
A|--2--2--2---2--2--2---2--2-2-2-------|
E|-------------------------------------|
 
Intro Main Riff (second time)
e|-------------|-------------|
B|-------------|-------------|
G|-------------|-------------|
D|-------------|-------------|> x2
A|-2-----3-----|-4-----3-----|
E|-------------|-------------|

Main Riff (second time)
e|-------------------------|-------------------------|
B|-------------------------|-------------------------|
G|-------------------------|-------------------------| 
D|-------------------------|-------------------------|> x2
A|-------------------------|-------------------------|
E|-0--2-2-2--2----0--0--0--|-0--3-3-3--3----2--2—-2—-|

e|-------------------------|-------------------------|
B|-------------------------|-------------------------|
G|-------------------------|-------------------------| 
D|-------------------------|-------------------------|
A|-------------------------|-------------------------|
E|-0--2-2-2--2----0--0--0--|-0--3-3-3--3----2--1—-0—-|

End of Main Riff (second time)
e|-------------------------|-------------------------|
B|-------------------------|-------------------------|
G|-------------------------|-------------------------|
D|-1--0--------------------|-------------------------|
A|-------------------2--0--|-2-----------------------|
E|-------------------------|-------------------------|

Interlude (second time)
e|---------------------|----------------------|
B|---------------------|----------------------|
G|--------8--7---------|----------------------|
D|-----5--------5--8--9|--5--7--5-----2-------|
A|--7------------------|-----------2----------|
E|---------------------|----------------------|

e|---------------------|----------------------|
B|---------------------|----------------------|
G|--------8--7---------|----------------------|
D|-----5--------5--8--9|--5--7--5--2----------|
A|--7------------------|--------------2-------|
E|---------------------|----------------------|

e|---------------------|----------------------|
B|---------------------|----------------------|
G|--------8--7---------|----------------------|
D|-----5--------5--8--9|--5--7--5-----2-------|
A|--7------------------|-----------2----------|
E|---------------------|----------------------|
Suggest correction
comments
print report bad tab
1 comment total.
0 reply
maddogmike77 30 Dec 08, 2006 11:17 PM

the intro goes like this
e-------------------|
B-------------------|
G-------------------|
D-------------------|> x4
A--2--3--4--3-------|
E-------------------|

your making the song harder than it really is

guest
You may want to rate the tab now too:
select rating
Wanna post a correction for this tab? Suggest correction