Oops, an error
Loading. Please wait.

Everything Im Not Tab

version 2
version 2

Whole song

Interactive

3,148 views 1 this week
1 commentread comment
1 2 3 4 5
2 more votes to show rating
add to favorites
launch autoscroll
font size
0
reset
how to read this tab
guitar tuner
Autoscroll
slow
fast
+/-
esc
set tempo
stop
Help us to improve Ultimate-Guitar.com Take our survey!
×
Author
Everything I’m Not
 
Intro/Verse
Guitar 1 (palm muted)
e|-------------------------------------------------------------|
B|-------------------------------------------------------------|
G|-------------------------------------------------------------|
D|---------8-8-8-8-8-8-8-8--0-10101010101010-10101010-10101010-| x3
A|-8888888-1010101010101010-0-8-8-8-8-8-8-8--------------------|
E|-6666666-----------------------------------10101010-8-8-8-8--|
   ******* * * * * * * * *  * * * * * * * *  * * * *  * * * * 

Guitar 2 (palm muted)
e|----------------------------------------------------|
B|----------------------------------------------------|
G|----------------------------------------------------|
D|----------------------------------------------------| x3
A|-77777777-88888888-10101010101010101010101010101010-|
E|-55555555-66666666-8-8-8-8-8-8-8-8-8-8-8-8-8-8-8-8--|
   ******** ******** * * * * * * * * * * * * * * * *  

Guitar 1 (palm muted)
e|---------------------------------------------|
B|---------------------------------------------|
G|---------------------------------------------|
D|---------------------------10101010-10101010-| x2
A|-77777777-55555555-3333333-------------------|
E|-55555555-33333333-1111111-10101010-8-8-8-8--|
   ******** ******** ******* * * * *  * * * * 

Guitar 2
e|-10~------11~------10~---8~|
B|----11-11----11-11----11---|
G|---------------------------| x4
D|---------------------------|
A|---------------------------|
E|---------------------------|

Chorus
Guitar 1
e|-------------------------------------|
B|-------------------------------------|
G|-------------------------------------|
D|-55555555-88888888-88888888-77777777-| x3
A|-55555555-88888888-88888888-77777777-|
E|-33333333-66666666-66666666-55555555-|

At “Coz she’s everything, everything…” play this:
e|---------|
B|---------|
G|---------|
D|-10-10-8~|
A|-10-10-8~|
E|-8--8--6~|

Guitar 2
e|-------------------------------------------------------------|
B|-15-15-15-13-13-13-11-11-11-11-11-11-11-11-------------------|
G|-------------------------------------------------------------|
D|-------------------------------------------88888888-77777777-| x2
A|-------------------------------------------88888888-77777777-|
E|-------------------------------------------66666666-55555555-|

e|---------------------------------------------------------------|
B|---------------------------------------------------------------|
G|-/11-11-11-10-10-10--------------------------------------------|
D|--------------------10-10-10-7-7-7-7-7-7-7-7-88888888-77777777-|
A|---------------------------------------------88888888-77777777-|
E|---------------------------------------------66666666-55555555-|

At “Coz she’s everything, everything…” play this:
e|---------|
B|---------|
G|---------|
D|-10-10-8~|
A|-10-10-8~|
E|-8--8--6~|

Repeat Verse 1

Repeat Chorus

Bridge
Guitar 1
e|------------------------------------------------------------------|
B|------------------------------------------------------------------|
G|------------------------------------------------------------------|
D|-777-xxxx-888-xxxx-555-xxxx-555-888-777-xxxx-888-xxxx-3-----7-----|
A|-777-xxxx-888-xxxx-555-xxxx-555-888-777-xxxx-888-xxxx-3-x16-7-x16-|
E|-555-xxxx-666-xxxx-333-xxxx-333-666-555-xxxx-666-xxxx-1-----5-----|

Guitar 2
e|------------------------------------------------------|
B|------------------------------------------------------|
G|------------------------------------------------------|
D|-777-xxxx-888-xxxx-555-xxxx-555-888-777-xxxx-888-xxxx-|
A|-777-xxxx-888-xxxx-555-xxxx-555-888-777-xxxx-888-xxxx-|
E|-555-xxxx-666-xxxx-333-xxxx-333-666-555-xxxx-666-xxxx-|

Guitar 2 continued
e|---------------------------|
B|-/11-11-11-10-10-10-11-x24-|
G|---------------------------|
D|---------------------------|
A|---------------------------|
E|---------------------------|

Guitar 1 (palm muted)
e|-------------------------------------------------------------|
B|-------------------------------------------------------------|
G|-------------------------------------------------------------|
D|---------8-8-8-8-8-8-8-8--0-10101010101010-10101010-10101010-|
A|-8888888-1010101010101010-0-8-8-8-8-8-8-8--------------------|
E|-6666666-----------------------------------10101010-8-8-8-8--|
   ******* * * * * * * * *  * * * * * * * *  * * * *  * * * * 

Guitar 2 (palm muted)
e|----------------------------------------------------|
B|----------------------------------------------------|
G|----------------------------------------------------|
D|----------------------------------------------------|
A|-77777777-88888888-10101010101010101010101010101010-|
E|-55555555-66666666-8-8-8-8-8-8-8-8-8-8-8-8-8-8-8-8--|
   ******** ******** * * * * * * * * * * * * * * * *  

Chorus x 2 
Suggest correction
Give kudos to tab author, rate the tab!
1 2 3 4 5
comments
print report bad tab
1 comment total.
0 reply
streetbrat2e2 30 Mar 24, 2006 04:21 AM

the chorus is not rite
its...G...D#....A#....F

guest
You may want to rate the tab now too:
select rating
Wanna post a correction for this tab? Suggest correction