Oops, an error
Loading. Please wait.

Everything Im Not tab

version 5
version 5

Whole song

Interactive

67 views 1 this week
no commentswrite comment
1 2 3 4 5
3 more votes to show rating
add to favorites
×
Save as Personal and add changes to this tab that will be seen only by you. Learn more ›
×
You can save this tab as Personal to edit and correct it or add notes. All changes will be seen only by you. Learn more »
launch autoscroll
font size
0
reset
how to read this tab
guitar tuner
edit
Autoscroll
slow
fast
+/-
esc
set tempo
stop
Author
Difficulty
Everything im not
The Veronicas

 
[Intro]

e|------------------------------------|----------------------------------------|
B|------------------------------------|----------------------------------------|
G|--2-2-2-2-2-2-2-2--3-3-3-3-3-3-3-3--|--5-5-5-5-5-5-5-5--5-5-5--5-5--5-5-5----|
D|--3-3-3-3-3-3-3-3--5-5-5-5-5-5-5-5--|--3-3-3-3-3-3-3-3--3-3-3--3-3--3-3-3----|
A|--1-1-1-1-1-1-1-1--5-5-5-5-5-5-5-5--|--3-3-3-3-3-3-3-3--5-5-5--3-3--3-3-3----|
E|------------------------------------|----------------------------------------|


If you struggle to play this you can place a capo on the 3rd fret and play

e|--------|
B|--------|
G|---2----|
D|---3----|
A|---1----|
E|--------|

as

e|-------|
B|-------|
G|-------|
D|---7---|
A|---8---|
E|---6---|


[Verse]

Play the same riff as the intro

e|------------------------------------|----------------------------------------|
B|------------------------------------|----------------------------------------|
G|--2-2-2-2-2-2-2-2--3-3-3-3-3-3-3-3--|--5-5-5-5-5-5-5-5--5-5-5--5-5--5-5-5----|
D|--3-3-3-3-3-3-3-3--5-5-5-5-5-5-5-5--|--3-3-3-3-3-3-3-3--3-3-3--3-3--3-3-3----|
A|--1-1-1-1-1-1-1-1--5-5-5-5-5-5-5-5--|--3-3-3-3-3-3-3-3--5-5-5--3-3--3-3-3----|
E|------------------------------------|----------------------------------------|

Oh no
Don't go changin'
That's what you told me from the start
Thought you were somethin' different
That's when it all just fell apart
Like your so perfect
And I can't measure up
Well I'm not perfect
Just all messed up


[Chorus]

e|------------------------------------|--------------------------------------------|
B|------------------------------------|--------------------------------------------|
G|---12--12--12---10--10--8--8--8--7--|--------------------------------------------|
D|---12--12--12---12--12--8--8--8--8--|---8--8--8--8--7--7--7--7-------------------|
A|---10--10--10---10--10--6--6--6--6--|---8--8--8--8--8--8--8--8-------------------|
E|------------------------------------|---6--6--6--6--6--6--6--6-------------------|

I was losing myself to somebody else
But now I see
And I don't wanna pretend
So this is the end of you and me
'cause the girl that you want
She was tearin' us apart

e|-----------------------------------|
B|-----------------------------------|
G|-----------------------------------|
D|---10-10-10-10--12-12-12-----------|
A|---10-10-10-10--13-13-13-----------|
E|---8--8--8--8---11-11-11-----------|

'cause she's everything
Everything I'm not


[Verse]

Return to

e|------------------------------------|----------------------------------------|
B|------------------------------------|----------------------------------------|
G|--2-2-2-2-2-2-2-2--3-3-3-3-3-3-3-3--|--5-5-5-5-5-5-5-5--5-5-5--5-5--5-5-5----|
D|--3-3-3-3-3-3-3-3--5-5-5-5-5-5-5-5--|--3-3-3-3-3-3-3-3--3-3-3--3-3--3-3-3----|
A|--1-1-1-1-1-1-1-1--5-5-5-5-5-5-5-5--|--3-3-3-3-3-3-3-3--5-5-5--3-3--3-3-3----|
E|------------------------------------|----------------------------------------|

It's not like I need somebody
Telling me where I should go at night
Don't worry you'll find somebody
Someone to tell how to live their life
'cause your so perfect
And no one measures up
Yeah all by yourself
Your all messed up


[Chorus]

e|------------------------------------|--------------------------------------------|
B|------------------------------------|--------------------------------------------|
G|---12--12--12---10--10--8--8--8--7--|--------------------------------------------|
D|---12--12--12---12--12--8--8--8--8--|---8--8--8--8--7--7--7--7-------------------|
A|---10--10--10---10--10--6--6--6--6--|---8--8--8--8--8--8--8--8-------------------|
E|------------------------------------|---6--6--6--6--6--6--6--6-------------------|

I was losing myself to somebody else
But now I see
I don't wanna pretend
So this is the end of you and me
'cause the girl that you want
She was tearin' us apart

e|-----------------------------------|
B|-----------------------------------|
G|-----------------------------------|
D|---10-10-10-10--12-12-12-----------|
A|---10-10-10-10--13-13-13-----------|
E|---8--8--8--8---11-11-11-----------|

'cause she's everything
Everything I'm not


[Bridge]

e|------------------------------------|
B|------------------------------------|
G|---7-7-7-------------8-8-8----------|
D|---7-7-7-------------8-8-8----------|
A|---5-5-5-------------6-6-6----------|
E|------------------------------------|

e|------------------------------------|
B|------------------------------------|
G|---7-7-7----8-8-8-------------------|
D|---5-5-5----8-8-8--8-8-8------------|
A|---5-5-5----6-6-6--8-8-8------------|
E|-------------------6-6-6------------|

Now wait a minute
Because of you
I never knew all of the things that I had

e|------------------------------------|
B|------------------------------------|
G|---7-7-7----8-8-8-------------------|
D|---7-7-7----8-8-8-------------------|
A|---5-5-5----6-6-6-------------------|
E|------------------------------------|

e|------------------------------------------------------|
B|------------------------------------------------------|
G|----8-8-8-8-8-8-8-8-8-8-------------------------------|
D|----8-8-8-8-8-8-8-8-8-8---8-8-8-8-7-7-7-7-7-7---------|
A|----6-6-6-6-6-6-6-6-6-6---8-8-8-8-8-8-8-8-8-8---------|
E|--------------------------6-6-6-6-6-6-6-6-6-6---------|

Hey don't you get it
I'm not going anywhere with you tonight
'cause this is my life


[Intro/Verse Riff]

e|------------------------------------|----------------------------------------|
B|------------------------------------|----------------------------------------|
G|--2-2-2-2-2-2-2-2--3-3-3-3-3-3-3-3--|--5-5-5-5-5-5-5-5--5-5-5--5-5--5-5-5----|
D|--3-3-3-3-3-3-3-3--5-5-5-5-5-5-5-5--|--3-3-3-3-3-3-3-3--3-3-3--3-3--3-3-3----|
A|--1-1-1-1-1-1-1-1--5-5-5-5-5-5-5-5--|--3-3-3-3-3-3-3-3--5-5-5--3-3--3-3-3----|
E|------------------------------------|----------------------------------------|


[Chorus]

e|------------------------------------|--------------------------------------------|
B|------------------------------------|--------------------------------------------|
G|---12--12--12---10--10--8--8--8--7--|--------------------------------------------|
D|---12--12--12---12--12--8--8--8--8--|---8--8--8--8--7--7--7--7-------------------|
A|---10--10--10---10--10--6--6--6--6--|---8--8--8--8--8--8--8--8-------------------|
E|------------------------------------|---6--6--6--6--6--6--6--6-------------------|


I was losing myself to somebody else
But now I see
(now I see yeah)
I don't wanna pretend
So this is the end of you and me
(end of you and me)
Cause the girl that you want
(that you want)
She was tearing us apart

e|-----------------------------------|
B|-----------------------------------|
G|-----------------------------------|
D|---10-10-10-10--12-12-12-----------|
A|---10-10-10-10--13-13-13-----------|
E|---8--8--8--8---11-11-11-----------|

Cause she's everything
Everything I'm not


 [Chorus](Slightly Different)

e|------------------------------------|--------------------------------------------|
B|------------------------------------|--------------------------------------------|
G|---12--12--12---12--12--7--7--7--7--|--------------------------------------------|
D|---12--12--12---12--12--8--8--8--8--|---8--8--8--8--7--7--7--7-------------------|
A|---10--10--10---10--10--6--6--6--6--|---8--8--8--8--8--8--8--8-------------------|
E|------------------------------------|---6--6--6--6--6--6--6--6-------------------|

But now I see
(i don't wanna)


 [Return to normal chorus riff]

e|------------------------------------|--------------------------------------------|
B|------------------------------------|--------------------------------------------|
G|---12--12--12---10--10--8--8--8--7--|--------------------------------------------|
D|---12--12--12---12--12--8--8--8--8--|---8--8--8--8--7--7--7--7-------------------|
A|---10--10--10---10--10--6--6--6--6--|---8--8--8--8--8--8--8--8-------------------|
E|------------------------------------|---6--6--6--6--6--6--6--6-------------------|

I don't wanna pretend
So this is the end of you and me
Cause the girl that you want
She was tearing us apart

e|-----------------------------------|
B|-----------------------------------|
G|-----------------------------------|
D|---10-10-10-10--12-----------------|
A|---10-10-10-10--13-----------------|
E|---8--8--8--8---11-----------------|

Cause she's everything
Everything I'm not


 

            
            
Suggest correction
Creating personal tab
Creating personal tab
You can edit any tab online and save it as your Personal.

You can edit, replace or remove any tab part or add personal notes – all changes will be seen only by you.

Personal tabs can be accessed anytime from any device, even offline.
Learn more »
Give kudos to tab author, rate the tab!
1 2 3 4 5
comments
print report bad tab
guest
You may want to rate the tab now too:
select rating
Wanna post a correction for this tab? Suggest correction