Oops, an error
Loading. Please wait.

I Could Get Used To This bass

version 2
version 2

Whole song

41 views 1 this week
no commentswrite comment
1 2 3 4 5
3 more votes to show rating
add to favorites
×
Save as Personal and add changes to this tab that will be seen only by you. Learn more ›
×
You can save this tab as Personal to edit and correct it or add notes. All changes will be seen only by you. Learn more »
launch autoscroll
font size
0
reset
guitar tuner
edit
Autoscroll
slow
fast
+/-
esc
set tempo
stop
Author
----------------------------------------------------------------------------------------------------------------
                               "I Could Get Used To This" - The Veronicas
----------------------------------------------------------------------------------------------------------------
Tabbed by: Liam_McCorey

Tuning: Standard (EADG)

KEY:       ~ = Let Ring
           / = Slide Up
     NO BASS = Stop Playing (Resume playing When The Lyrics following "NO BASS" Begin)

================================================================================================================

NO BASS

You make me breakfast in bed
When I'm mixed up in my head
You wake me with a kiss
I could get used to this

G|-----------------------------------------------------------------------------|
D|-----------------------------------------------------------------------------|
A|-------------2~----4~----------4~---------------4~--2~---2~------4~----2~----|
E|-5~----0~----------------5~----------4~----2~-2--------2----2~-2----5~-------|

G|-----------------------------------------------------------------------------|
D|-----------------------------------------------------------------------------|
A|----------------------------2-2-2-2-2-2--4-4-4-4--2-2-2-2--------------------|
E|-5-5-5-5-5-5--0-0-0-0-0-0----------------------------------------------------|

G|-----------------------------------------------------------------------------|
D|-----------------------------------------------------------------------------|
A|----------------------------------------4-4-4-4--2-2-2-2---------------------|
E|-5-5-5-5-5-5--0-0-0-0-0-0--4-4-4-4-4-4---------------------------------------|

G|-----------------------------------------------------------------------------|
D|-----------------------------------------------------------------------------|
A|----------------------------2-2-2-2-2-2--4-4-4-4--2-2-2-2--------------------|
E|-5-5-5-5-5-5--0-0-0-0-0-0----------------------------------------------------|

G|-----------------------------------------------------------------------------|
D|-----------------------------------------------------------------------------|
A|----------------------------------------4-4-4-4--2-2-2-2---------------------|
E|-5-5-5-5-5-5--0-0-0-0-0-0--4-4-4-4-4-4---------------------------------------|

NO BASS
You love the songs I write

G|-----------------------------------------------------------------------------|
D|-----------------------------------------------------------------------------|
A|---2~-2-4----4~------------4~--2~---2~------4~----2~-------------------------|
E|-2--------5~----4~----2~-2--------2----2~-2----5~----------------------------|

G|-----------------------------------------------------------------------------|
D|-----------------------------------------------------------------------------|
A|----------------------------2-2-2-2-2-2--4-4-4-4--2-2-2-2--------------------|
E|-5-5-5-5-5-5--0-0-0-0-0-0----------------------------------------------------|

G|-----------------------------------------------------------------------------|
D|-----------------------------------------------------------------------------|
A|----------------------------------------4-4-4-4--2-2-2-2---------------------|
E|-5-5-5-5-5-5--0-0-0-0-0-0--4-4-4-4-4-4---------------------------------------|

G|-----------------------------------------------------------------------------|
D|-----------------------------------------------------------------------------|
A|----------------------------2-2-2-2-2-2--4-4-4-4--2-2-2-2--------------------|
E|-5-5-5-5-5-5--0-0-0-0-0-0----------------------------------------------------|

G|-----------------------------------------------------------------------------|
D|-----------------------------------------------------------------------------|
A|----------------------------------------4-4-4-4--2-2-2-2---------------------|
E|-5-5-5-5-5-5--0-0-0-0-0-0--4-4-4-4-4-4---------------------------------------|

G|-----------------------------------------------------------------------------|
D|-----------------------------------------------------------------------------|
A|-4-4-4-4-4-4-----------------------------------------------------------------|
E|-------------3-3-3-3-3-3-3-3-2-2-2-2-2-2-2-2-0-0-0-0-0-0-0-0-0-0-0-0-0-0-----|

G|-----------------------------------------------------------------------------|
D|-----------------------------------------------------------------------------|
A|-------------------------------3-3-3-3-3-3-3-3-------------------------------|
E|-3-3-3-3-3-3-3-3-2-2-2-2-2-2-2-----------------5-5-5-5-5---------------------|

NO BASS

Cause you wrote my name all across your hand 
When I freak You understand 
There's not a thing you miss
And I could get used to this

G|-----------------------------------------------------------------------------|
D|-----------------------------------------------------------------------------|
A|----------------------------2-2-2-2-2-2--4-4-4-4--2-2-2-2--------------------|
E|-5-5-5-5-5-5--0-0-0-0-0-0----------------------------------------------------|

G|-----------------------------------------------------------------------------|
D|-----------------------------------------------------------------------------|
A|----------------------------------------4-4-4-4--2-2-2-2---------------------|
E|-5-5-5-5-5-5--0-0-0-0-0-0--4-4-4-4-4-4---------------------------------------|

G|-----------------------------------------------------------------------------|
D|-----------------------------------------------------------------------------|
A|------------------------4-4-4-4--2-2-2-2-------------------------------------|
E|-1/9-9-4-7-4-2--2-2-2-2------------------------------------------------------|

G|-----------------------------------------------------------------------------|
D|-----------------------------------------------------------------------------|
A|----------------------------2-2-2-2-2-2--4-4-4-4--2-2-2-2--------------------|
E|-5-5-5-5-5-5--0-0-0-0-0-0----------------------------------------------------|

NO BASS

You make me breakfast in bed
When I'm mixed up in my head
You wake me with a kiss
I could get used to this




================================================================================================================

            
            
Suggest correction
Creating personal tab
Creating personal tab
You can edit any tab online and save it as your Personal.

You can edit, replace or remove any tab part or add personal notes – all changes will be seen only by you.

Personal tabs can be accessed anytime from any device, even offline.
Learn more »
Give kudos to tab author, rate the tab!
1 2 3 4 5
comments
print report bad tab
guest
You may want to rate the tab now too:
select rating
Wanna post a correction for this tab? Suggest correction