Oops, an error
Loading. Please wait.

Secret bass

611 views 1 this week
no commentswrite comment
1 2 3 4 5
2 more votes to show rating
add to favorites
×
Save as Personal and add changes to this tab that will be seen only by you. Learn more ›
×
You can save this tab as Personal to edit and correct it or add notes. All changes will be seen only by you. Learn more »
launch autoscroll
font size
0
reset
guitar tuner
edit
Autoscroll
slow
fast
+/-
esc
set tempo
stop
Author
Difficulty
----------------------------------------------------------------------------
			     SECRET - The Veronicas
----------------------------------------------------------------------------

Tabbed By: Flavia
e-mail: flaviamorenodemarco@hotmail.com

Tuning: standard

No bass:

You're a little obsessed with me
And I'm a little bit scared of you
The way you look and stare at me
Maybe it's time I'll let you know

Chorus:
G|-------------------------------------------------------------------------|
D|-------------------------------------------------------------------------|
A|-4-4-4-4-----------------------------------------------------------------|
E|----------4-4-4-4--5-5-5-5--0-0-0-0-------------------------------------|
You could call me six time but still won't pick up the phone

G|-------------------------------------------------------------------------|
D|-------------------------------------------------------------------------|
A|-4-4-4-4-----------------------------------------------------------------|
E|----------4-4-4-4--5-5-5-5--0-0-0-0--------------------------------------|
You could spend all your money on me but still I'll say 'no'

G|-------------------------------------------------------------------------|
D|-------------------------------------------------------------------------|
A|-4-4-4-4--------------------2-2-2-2-(or-7-7-7-7-)------------------------|
E|----------4-4-4-4--5-5-5-5-----------------------------------------------|
You could write a million letters every day confessing to me

G|-------------------------------------------------------------------------|
D|-------------------------------------------------------------------------|
A|----------2-2-2-2--------------------------------------------------------|
E|-0-0-0-0-----------2-2-2-2--5-5-5-5--------------------------------------|
That I am the girl of your dreams

G|-------------------------------------------------------------------------|
D|-------------------------------------------------------------------------|
A|----------2-2-2-2--4-4-4-4-----------------------------------------------|
E|-0-0-0-0--------------------5-5-5-5--------------------------------------|
But nobody ever asked me

G|-------------------------------------------------------------------------|
D|-------------------------------------------------------------------------|
A|-------------------------------------------------------------------------|
E|-0-2-4-2-4-2-2--2-2-2-2--5-5-5-5-----------------------------------------|
I never looked at you that way

No bass
Cause I always thought you were gay

Everytime you come around
You just look me up and down
And then you try to hold my hand
I'm confused, now I don't understand

Repeat Chorus

G|-------------------------------------------------------------------------|
D|-------------------------------------------------------------------------|
A|-2-2-2--2-2-2-2-2--4-4-4-------------------------------------------------|
E|-------------------------5-5--5-5-5--------------------------------------|
You told me lies, you made me believe

G|-------------------------------------------------------------------------|
D|-------------------------------------------------------------------------|
A|-2-2-2--2-2-2-2-2--4-4-4-------------------------------------------------|
E|-------------------------5-5--5-5-5--------------------------------------|
It would be fine if there was nothing to see

G|-------------------------------------------------------------------------|
D|-------------------------------------------------------------------------|
A|-2-2-2--------------------9-7-6-4-6--------------------------------------|
E|--------4-4-4-4-4--5-5-5-------------------------------------------------|
I'd be undressing in front of you

G|-------------------------------------------------------------------------|
D|-------------------------------------------------------------------------|
A|-4~-2~-------------------------------------------------------------------|
E|-------------------------------------------------------------------------|
I told you secrets that no one eles knew

Repeat chorus and, basically, that's it!

| /  slide up
| \  slide down
| h  hammer-on
| p  pull-off
| ~  vibrato
| +  harmonic
| x  Mute note
============================================================================
Suggest correction
Creating personal tab
Creating personal tab
You can edit any tab online and save it as your Personal.

You can edit, replace or remove any tab part or add personal notes – all changes will be seen only by you.

Personal tabs can be accessed anytime from any device, even offline.
Learn more »
Give kudos to tab author, rate the tab!
1 2 3 4 5
comments
print report bad tab
guest
You may want to rate the tab now too:
select rating
Wanna post a correction for this tab? Suggest correction