Oops, an error
Loading. Please wait.

Secret tab

2,391 views 1 this week
1 commentread comment
1 2 3 4 5
1 last vote to show rating
add to favorites
×
Save as Personal and add changes to this tab that will be seen only by you. Learn more ›
×
You can save this tab as Personal to edit and correct it or add notes. All changes will be seen only by you. Learn more »
launch autoscroll
font size
0
reset
how to read this tab
guitar tuner
edit
Autoscroll
slow
fast
+/-
esc
set tempo
stop
secret the veronicas
the secret life of the veronicas(2005)
TABBED BY ELDOPLAYSGUITAR

intro/verse(guitar 1)      2nd time add this 3rd time normal
e-----------0------0"----0--|
B----------2------0-"---0-0-|
G---------1------1--"--2----|
D--------2------2---"-2-----|
A----2-4-------2----"-------|
E-2/4---------0-----"-------|
(guitar 2) theres extra flemenco style picking
e------------0~------"---------------------------------|
B------------0~------"--0~-----------------------------|
G-6~---------0~------"--2~-----------------------------|
D-6~---------2~------"--2~--- over the top of guitar 1-|
A-4~---------2~------"--0~-----------------------------|
E------------0~------"---------------------------------|
 (guitar 1)
e---------------------0--|
B----1------------0----0-|
G---0------0-----2-------|
D--2------0-----2--------|
A-3------2-----0---------|
E-------3----------------|
 (guitar 2)
e-------------------------|
B-1~------------0~--------|
G-0~------0~----2~--------|
D-2~------0~----2~--------|
A-3~------2~----0~--------|
E---------3~--------------|
FAST DRUM BEAT chourus (both guitar)
e-----------------------|
B-----------------------|
G-66-------------11-----|
D-66---66---77---22-----|x2
A-44---66---77---22-----|
E------44---55---00-----|
(guitar 1)
e-----------------------|
B-----------------------|
G-66-------------44-----|
D-66---66---77---44-----|
A-44---66---77---22-----|
E------44---55----------|

e-----------------------------------------|
B-----------------------------------------|
G-11---44-------------11---44---66--------|
D-22---44---44---77---22---44---66---77---|
A-22---22---44---77---22---22---44---77---|
E-00--------22---55---00-------------55---|

e-------------------------xxxxxxxx~--|
B-------------------------xxxxxxxx~--|
G-11---44-------------6~--xxxxxxxx~--|
D-22---44---44---77---6~--xxxxxxxx~--|
A-22---22---44---77---4~--xxxxxxxx~--|
E-00--------22---55-------xxxxxxxx~--|
(guitar 2)
e---7----7----7----7----|
B-5----5----5----5------|
G-----------------------|x3
D-----------------------|
A-----------------------|
E-----------------------|

e---7----7----7----7--xxxxxxxx~--|
B-5----5----5----5----xxxxxxxx~--|
G---------------------xxxxxxxx~--|
D---------------------xxxxxxxx~--|
A---------------------xxxxxxxx~--|
E---------------------xxxxxxxx~--|

verse

chourus

Bridge Different rythem
e-----------------|
B-----------------|
G-4444-6666-------|
D-4444-6666-7777--|x2
A-2222-4444-7777--|
E-----------5555--|

e------------------------------------|
B------------------------------------|
G-4444----------------7777-6666-4444-|
D-4444-6666-7777-4444-7777-6666-4444-|
A-2222-6666-7777-4444-5555-4444-2222-|
E------4444-5555-2222----------------|

chourus

outro (same as verse)
Suggest correction
Creating personal tab
Creating personal tab
You can edit any tab online and save it as your Personal.

You can edit, replace or remove any tab part or add personal notes – all changes will be seen only by you.

Personal tabs can be accessed anytime from any device, even offline.
Learn more »
Give kudos to tab author, rate the tab!
1 2 3 4 5
comments
print report bad tab
1 comment total.
+1 reply
alexhockey 10 Apr 16, 2008 01:38 PM

Kool hell hard to play though

guest
You may want to rate the tab now too:
select rating
Wanna post a correction for this tab? Suggest correction