Oops, an error
Loading. Please wait.

Speechless tab

version 2
version 2

Whole song

9,688 views 3 this week
1 commentread comment
1 2 3 4 5
1 last vote to show rating
add to favorites
×
Save as Personal and add changes to this tab that will be seen only by you. Learn more ›
×
You can save this tab as Personal to edit and correct it or add notes. All changes will be seen only by you. Learn more »
launch autoscroll
font size
0
reset
how to read this tab
guitar tuner
edit
Autoscroll
slow
fast
+/-
esc
set tempo
stop
Author
eiah.. please rate it and leave some comments...please
by the way the solo isn't 100% sure..
listen to the s0ng while playing this..it might help with the timing




VERSE I:
           C                  G               Em
|---------------------------------------------------------|
|-------------------1-----------3--------------0----------|
|--------------------------------------------0------------|
|---------------2-------------0------------2--------------|
|-----------3----------------2-----------2----------------|
|---------------------------------------------------------|
feels like I   have always known you and I swear I dreamt

    C        Am7                 G
|---------------------------------------------------------|
|-----1-------------1---------------1---------------------|
|-------0-------------------------------------------------|
|---2-----------2--------------0--------------------------|
|-3-----------0--------------2----------------------------|
|---------------------------------------------------------|
 about you all those endless nights I was alone

        
  Am7            G
|---------------------------------------------------------|
|---------1-------------3---------------------------------|
|-------0-------------0----0------------------------------|
|-----2-------------0-------------------------------------|
|---0-------------2---------------------------------------|
|---------------------------------------------------------|

                C               G           Em
|-------------------------------------------------------------|
|-----------------------1-----------3--------------0----------|
|------------------------------------------------0------------|
|-------------------2-------------0------------2--------------|
|---------------3----------------2-----------2----------------|
|-------------------------------------------------------------|
it’s like I’ve spent forever  searching   now I know that it

  C          Am7                       G
|---------------------------------------------------------|
|-----1-------------1-----------------------1-------------|
|-------0-------------------------------------------------|
|---2-----------2-----------------------0-----------------|
|-3-----------0----------------------2--------------------|
|---------------------------------------------------------|
was worth it witb you it feels like I am finally home

 


    Am7          G
|---------------------------------------------------------|
|---------1-------------3---------------------------------|
|-------0-------------0----0------------------------------|
|-----2-------------0-------------------------------------|
|---0-------------2---------------------------------------|
|---------------------------------------------------------|


REFRAIN:

          C                        A                 
falling head over heels thought I knew how it feels
          C                                  D
but with you it’s like the first day of my life



CHORUS:
                   G          C                D
Cause you leave me speechless when you talk to me
C            G          Em                   D
You leave me breathless the way you look at me
Dsus          G          Em                   D
You manage to disarm me my soul is shining through
      Em          C        D
can’t help but surrender

My everything to you


           C                 G           Em
|---------------------------------------------------------|
|-------------------1-----------3--------------0----------|
|-----------------0------------0--0----------0------------|
|---------------2-------------0------------2--------------|
|-----------3----------------2-----------2----------------|
|---------------------------------------------------------|


    C        
|---------------------------------------------------------|
|-----1---------------------------------------------------|
|----0--0-------------------------------------------------|
|---2-----------------------------------------------------|
|-3-------------------------------------------------------|
|---------------------------------------------------------|





VERSE II:
           C                G           Em
|---------------------------------------------------------|
|-------------------1-----------3--------------0----------|
|--------------------------------------------0------------|
|---------------2-------------0------------2--------------|
|-----------3----------------2-----------2----------------|
|---------------------------------------------------------|
      I thought I could resist you     I thought that I was      

 C            Am7              G
|---------------------------------------------------------|
|-----1-------------1---------------1---------------------|
|-------0-------------------------------------------------|
|---2-----------2--------------0--------------------------|
|-3-----------0--------------2----------------------------|
|---------------------------------------------------------|
strong        somehow you are different from what I’ve known

     Am7          G
|---------------------------------------------------------|
|---------1-------------3---------------------------------|
|-------0-------------0----0------------------------------|
|-----2-------------0-------------------------------------|
|---0-------------2---------------------------------------|
|---------------------------------------------------------|

               C                G           Em
|-------------------------------------------------------------|
|-----------------------1-----------3--------------0----------|
|------------------------------------------------0------------|
|-------------------2-------------0------------2--------------|
|---------------3----------------2-----------2----------------|
|-------------------------------------------------------------|
             I didn’t see it coming     you took me by 

    C            Am7                   G
|---------------------------------------------------------|
|-----1-------------1-----------------------1-------------|
|-------0-------------------------------------------------|
|---2-------------2---------------------0-----------------|
|-3--------------0-------------------2--------------------|
|---------------------------------------------------------|
surprise and   stole my heart    before I could say no


   Am7           G
|---------------------------------------------------------|
|---------1-------------3---------------------------------|
|-------0-------------0----0------------------------------|
|-----2-------------0-------------------------------------|
|---0-------------2---------------------------------------|
|---------------------------------------------------------|



REFRAIN:
        C                         D               
Falling head over heels thought I knew how it feels

         C9                                     D
but with you it’s like the first day of my life




CHORUS:
                   G          C                D
Cause you leave me speechless when you talk to me
C            G          Em                   D
You leave me breathless the way you look at me
Dsus          G          Em                   D
You manage to disarm me my soul is shining through
        Em          C        D
I can’t help but surrender

My everything to you

BRIDGE:
(not sure about this solo)
e|--------------------------------------------------------------------|
B|---11—11/14----13—14-14-----13-13-13----12-12-12--10-10---11/15-----|
G|--------------------------------------------------------------------|
D|--------------------------------------------------------------------|
A|--------------------------------------------------------------------|
E|--------------------------------------------------------------------|
( PLAY THIS CHORDS WHILE DOING THIS SOLO [PLAY THE SOLO AFTER THE FIRST G]

G-C-D-G-Em-C-D)

             G
You leave me speechless
             
                       C                 D
the way you smile the way you touch my face

C            G
You leave me breathless

                       Em                    D
there’s something that you do I can’t explain

Em                C                  G             D
I’d run a million miles just to hear you say my name baby, oh


             G          (1 strum each)Em-C-D
You leave me speechless

C            G   
You leave me breathless 

Em                   D
The way you look at me

Dsus          G
You manage to disarm me

Em                    D
My soul is shinning through

       Em           C    D
I can’t help but surrender my everything to you


           C                 G           Em
|---------------------------------------------------------| 
|-------------------1-----------3--------------0----------|     
|-----------------0------------0--0----------0------------| 2x 
|---------------2-------------0------------2--------------|   
|-----------3----------------2-----------2----------------|
|---------------------------------------------------------|


END 1 STRUM EACH   C-G

            
            
Suggest correction
Creating personal tab
Creating personal tab
You can edit any tab online and save it as your Personal.

You can edit, replace or remove any tab part or add personal notes – all changes will be seen only by you.

Personal tabs can be accessed anytime from any device, even offline.
Learn more »
Give kudos to tab author, rate the tab!
1 2 3 4 5
comments
print report bad tab
1 comment total.
+1 reply
miss_princess 10 Jan 04, 2010 01:13 AM

This songs sounds better with the capo on 2. It puts it in the same key as the original. The only issue is that the chorus is a little different to the original but it still sounds good on its own.

p.s. i used this tab for my school performance and came first! thanks!

guest
You may want to rate the tab now too:
select rating
Wanna post a correction for this tab? Suggest correction