Oops, an error
Loading. Please wait.

Were Not Gonna Take It bass

975 views 1 this week
no commentswrite comment
1 2 3 4 5
3 more votes to show rating
add to favorites
×
Save as Personal and add changes to this tab that will be seen only by you. Learn more ›
×
You can save this tab as Personal to edit and correct it or add notes. All changes will be seen only by you. Learn more »
launch autoscroll
font size
0
reset
guitar tuner
edit
Autoscroll
slow
fast
+/-
esc
set tempo
stop
Author
Difficulty
----------------------------------------------------------------------------
		  WE'RE NOT GONNA TAKE IT - The Veronicas
----------------------------------------------------------------------------

Tabbed By: UhHuhFlávia
e-mail: flaviamorenodemarco@hotmail.com

Tuning: standard

Intro:
We're not gonna take it
No, we ain't gonna take ir
We're not gonna take it

G|-------------------------------------------------------------------------|
D|-5-5-5-5--4-4-4-4--2-2-2-2--0-0-0-0--------------------------------------|
A|-------------------------------------------------------------------------|
E|-------------------------------------------------------------------------|
anymore

G|-------------------------------------------------------------------------|
D|-------------------------------------------------------------------------|
A|------------------5-5-5-5-5-5-5-5------------------3-3-3-3-3-3-3-3-------|
E|-3-3-3-3-3-3-3-3------------------0-0-0-0-0-0-0-0------------------------|
We've got the right to choose and
There ain't no way we'll lose it

G|-------------------------------------------------------------------------|
D|-----------------------------------5-5-5-5--4-4-4-4--2-2-2-2--0-0-0-0----|
A|------------------5-5-5-5-5-5-5-5----------------------------------------|
E|-3-3-3-3-3-3-3-3---------------------------------------------------------|
This is our life, this is our song

G|-------------------------------------------------------------------------|
D|-------------------------------------------------------------------------|
A|------------------5-5-5-5-5-5-5-5------------------3-3-3-3-3-3-3-3-------|
E|-3-3-3-3-3-3-3-3------------------0-0-0-0-0-0-0-0------------------------|
We'll fight the powers that be just
Don't pick our destiny 'cause

G|-------------------------------------------------------------------------|
D|-----------------------------------5-5-5-5--4-4-4-4--2-2-2-2--0-0-0-0----|
A|------------------5-5-5-5-5-5-5-5----------------------------------------|
E|-3-3-3-3-3-3-3-3---------------------------------------------------------|
You don't know us, you don't belong
Oh oh oh oh

G|-------------------------------------------------------------------------|
D|-------------------------------------------------------------------------|
A|------------------5-5-5-5-5-5-5-5-------------------3-3-3-3-3-3-3-3------|
E|-3-3-3-3-3-3-3-3-------------------0-0-0-0-0-0-0-0-----------------------|
We're not gonna take it
No, we ain't gonna take it

G|-------------------------------------------------------------------------|
D|-------------------------------------------------------------------------|
A|------------------5-5-5-5-5-5-5-5----------------------------------------|
E|-3-3-3-3-3-3-3-3-------------------[0-0-0-0-0-0-0-0-0-0-0-0] optional----|
We're not gonna take it anymore
(No more, no more, no more)

G|-------------------------------------------------------------------------|
D|-------------------------------------------------------------------------|
A|------------------5-5-5-5-5-5-5-5------------------3-3-3-3-3-3-3-3-------|
E|-3-3-3-3-3-3-3-3-------------------0-0-0-0-0-0-0-0-----------------------|
We're not gonna take it
No, we ain't gonna take it

G|-------------------------------------------------------------------------|
D|-------------------------------------------------------------------------|
A|-----------------5-5-5-5-5-5-5-5------------------5-5--------------------|
E|-3-3-3-3-3-3-3-3-----------------0-1-0-3-0-1-0-1-------------------------|
We're not gonna take it anymore

G|-------------------------------------------------------------------------|
D|-------------------------------------------------------------------------|
A|-----------------5-5-5-5-5-5-5-5-------------------3-3-3-3-3-3-3-3-------|
E|-3-3-3-3-3-3-3-3------------------0-0-0-0-0-0-0-0------------------------|
Oh, you're so condescending
Your gall is never ending

G|-------------------------------------------------------------------------|
D|-----------------------------------5-5-5-5--4-4-4-4--2-2-2-2--0-0-0-0----|
A|------------------5-5-5-5-5-5-5-5----------------------------------------|
E|-3-3-3-3-3-3-3-3---------------------------------------------------------|
We don't want nothing, not a thing, from you
(or you, or you, or you)

G|-------------------------------------------------------------------------|
D|-------------------------------------------------------------------------|
A|-----------------5-5-5-5-5-5-5-5-------------------3-3-3-3-3-3-3-3-------|
E|-3-3-3-3-3-3-3-3------------------0-0-0-0-0-0-0-0------------------------|
Your life is trite and jaded
Boring and confiscated

G|-------------------------------------------------------------------------|
D|-----------------------------------5-5-5-5--4-4-4-4--2-2-2-2--0-0-0-0----|
A|------------------5-5-5-5-5-5-5-5----------------------------------------|
E|-3-3-3-3-3-3-3-3---------------------------------------------------------|
If that's your best, your best won't do!
Oh oh oh oh

G|-------------------------------------------------------------------------|
D|-------------------------------------------------------------------------|
A|-----------------5-5-5-5-5-5-5-5-------------------3-3-3-3-3-3-3-3-------|
E|-3-3-3-3-3-3-3-3------------------0-0-0-0-0-0-0-0------------------------|
We're not gonna take it
No, we ain't gonna take it

G|-------------------------------------------------------------------------|
D|-------------------------------------------------------------------------|
A|------------------5-5-5-5-5-5-5-5----------------------------------------|
E|-3-3-3-3-3-3-3-3-------------------[0-0-0-0-0-0-0-0-0-0-0-0] optional----|
We're not gonna take it anymore
(I won't take it no more)

G|-------------------------------------------------------------------------|
D|-------------------------------------------------------------------------|
A|-----------------5-5-5-5-5-5-5-5-------------------3-3-3-3-3-3-3-3-------|
E|-3-3-3-3-3-3-3-3------------------0-0-0-0-0-0-0-0------------------------|
We're not gonna take it (No more)
No, we ain't gonna take it (No more)

G|-------------------------------------------------------------------------|
D|-------------------------------------------------------------------------|
A|-----------------5-5-5-5-5-5-5-5------------------5-5--------------------|
E|-3-3-3-3-3-3-3-3-----------------0-1-0-3-0-1-0-1-------------------------|
We're not gonna take it anymore

G|-----5--------5--------4-------------------------------------------------|
D|-3-3---3--3-3---3--2-2---2------7-----3-3-3-3-3-3-3-3--2-2-2-2--0-0-0-0--|
A|----------------------------5-5---5--------------------------------------|
E|-------------------------------------------------------------------------|
Oh oh oh
Oh oh oh

G|-------------------------------------------------------------------------|
D|-------------------------------------------------------------------------|
A|-------------5-5-5-5-5-5-5-5-5-5-5-5-5-5---------------------------------|
E|-3-3-4-4-5-5-------------------------------------------------------------|
We're right, yeah
We're free, yeah
We'll fight, yeah
You'll see, yeah

no bass
We're not gonna take it
No, we ain't gonna take ir
We're not gonna take it

G|-------------------------------------------------------------------------|
D|-5-5-5-5--4-4-4-4--2-2-2-2--0-0-0-0--------------------------------------|
A|-------------------------------------------------------------------------|
E|-------------------------------------------------------------------------|
anymore

Guitar solo:
G|-------------------------------------------------------------------------|
D|-------------------------------------------------------------------------|
A|-----------------5-5-5-5-5-5-5-5-------------------3-3-3-3-3-3-3-3-------|
E|-3-3-3-3-3-3-3-3------------------0-0-0-0-0-0-0-0------------------------|
Wow!

G|-----------------------------------[--------12-14-16-19-oh oh oh oh--]---|
D|-----------------------------------[---------------------------------]---|
A|------------------5-5-5-5-5-5-5-5--[---------------------------------]---|
E|-3-3-3-3-3-3-3-3-------------------[0-0-0-0-0-0-0-0-0-0-0-0- optional]---|

G|-------------------------------------------------------------------------|
D|-------------------------------------------------------------------------|
A|-----------------5-5-5-5-5-5-5-5-------------------3-3-3-3-3-3-3-3-------|
E|-3-3-3-3-3-3-3-3------------------0-0-0-0-0-0-0-0------------------------|
(No more, no more) Woh!

G|-------------------------------------------------------------------------|
D|-----------------------------------5-5-5-5--4-4-4-4--2-2-2-2--0-0-0-0----|
A|------------------5-5-5-5-5-5-5-5----------------------------------------|
E|-3-3-3-3-3-3-3-3---------------------------------------------------------|
No more, no more, no more!

G|-------------------------------------------------------------------------|
D|-------------------------------------------------------------------------|
A|-----------------5-5-5-5-5-5-5-5-------------------3-3-3-3-3-3-3-3-------|
E|-3-3-3-3-3-3-3-3------------------0-0-0-0-0-0-0-0------------------------|
We're not gonna take it (no, no)
No, we ain't gonna take it (no, no)

G|-------------------------------------------------------------------------|
D|-------------------------------------------------------------------------|
A|------------------5-5-5-5-5-5-5-5----------------------------------------|
E|-3-3-3-3-3-3-3-3-------------------[0-0-0-0-0-0-0-0-0-0-0-0] optional----|
We're not gonna take it anymore (oh oh oh oh)

G|-------------------------------------------------------------------------|
D|-------------------------------------------------------------------------|
A|-----------------5-5-5-5-5-5-5-5-------------------3-3-3-3-3-3-3-3-------|
E|-3-3-3-3-3-3-3-3------------------0-0-0-0-0-0-0-0------------------------|
We're not gonna take it (not gonna take it)
No, we ain't gonna take it (not gonna take it)

G|-------------------------------------------------------------------------|
D|-------------------------------------------------------------------------|
A|-----------------5-5-5-5-5-5-5-5------------------5-5--------------------|
E|-3-3-3-3-3-3-3-3-----------------0-1-0-3-0-1-0-1-------------------------|
We're not gonna take it anymore

no bass
We're not gonna take it
No, we ain't gonna take it
We're not gonna take it anymore


So, I hope it's alright. There is no bass in some parts, but we can always invent 
that's gonna fit just fine.

| /  slide up
| \  slide down
| h  hammer-on
| p  pull-off
| ~  vibrato
| +  harmonic
| x  Mute note
============================================================================
Suggest correction
Creating personal tab
Creating personal tab
You can edit any tab online and save it as your Personal.

You can edit, replace or remove any tab part or add personal notes – all changes will be seen only by you.

Personal tabs can be accessed anytime from any device, even offline.
Learn more »
Give kudos to tab author, rate the tab!
1 2 3 4 5
comments
print report bad tab
guest
You may want to rate the tab now too:
select rating
Wanna post a correction for this tab? Suggest correction