Oops, an error
Loading. Please wait.

Whats Going On tab

2,393 views 1 this week
no commentswrite comment
1 2 3 4 5
3 more votes to show rating
add to favorites
×
Save as Personal and add changes to this tab that will be seen only by you. Learn more ›
×
You can save this tab as Personal to edit and correct it or add notes. All changes will be seen only by you. Learn more »
launch autoscroll
font size
0
reset
how to read this tab
guitar tuner
edit
Autoscroll
slow
fast
+/-
esc
set tempo
stop
Author
Difficulty
Ok well.. this is the acoustic version of whats going. I just made the picking up but it 
like the song. Hope use like it [=

|-----------------------|-1---------0--1---------------------1---------|
|-----------------------|-3-------3------------1-----------1---1-------|
|-----------------------|-2-----2------------3---3-------2-------------|
|-----------------8/10--|-3---0------------3-----------3---------------|
|--8---8---7---8--------|----------------1-----------------------------|
|-----------------------|----------------------------------------------|
      Intro                    Verse

------------3-----0------|--1--1------1--1----------------------------|
--------------1-----1----|--1--1--1---1--1--1-1-1-1-1-1-1-1-----------|
--------0-------0-----x2-|--3--2--0---3--2--0-0-0-0-0-0-0-0-----------|
-----2-------------------|--3--3--2---3--3--2-2-2-2-2-2-2-2-----------|
--3----------------------|--1-----3---1-----3-3-3-3-3-3-3-3-----------|
-------------------------|--1---------1-------------------------------|
                             Bridge

|--1------------------|-1--------------------|1--------------|0--------|
|--3------------------|-1--------------------|1--------------|1--------|
|--2------------------|-3--------------------|2--------------|0----x2--|
|---------------------|-3--------------------|3--------------|2--------|
|---------------------|-1--------------------|---------------|3--------|
|---------------------|-1--------------------|---------------|---------|
 Chorus
  All the things you    do what you want      baby whats      on
  said to me dont even  caz im not gona save  going
  matter                you

|----------------------------|
|----------------------------|
|----------------------------|
|----------------8/10--------|
|---8--8--7---8--------------|
|----------------------------|
   whats going on

Verse x 2
Chorus x2

Outro

|----------------------------------------------------------------------|
|---------1--------------1---------------1-----------------------------|
|------------3--------------2-------0----------0------x2---------------|
|-----3---------------3-----------2---2-----2-----2--------------------|
|--1---------------0------------3--------------------------------------|
|----------------------------------------------------------------------|

Chorus

|---------------------------------------------------|
|-------------------------------------------10/13---|
|----------------------------10--10--9--10----------|
|----------------8/10-------------------------------|
|---8--8--7---8-------------------------------------|
|---------------------------------------------------|
                             But here i am
Suggest correction
Creating personal tab
Creating personal tab
You can edit any tab online and save it as your Personal.

You can edit, replace or remove any tab part or add personal notes – all changes will be seen only by you.

Personal tabs can be accessed anytime from any device, even offline.
Learn more »
Give kudos to tab author, rate the tab!
1 2 3 4 5
comments
print report bad tab
guest
You may want to rate the tab now too:
select rating
Wanna post a correction for this tab? Suggest correction