Oops, an error
Loading. Please wait.

Already There Bass Tab

349 views 1 this week
no commentswrite comment
1 2 3 4 5
please rate
add to favorites
launch autoscroll
font size
0
reset
guitar tuner
Autoscroll
slow
fast
+/-
esc
set tempo
stop
Help us to improve Ultimate-Guitar.com Take our survey!
×
Author
Difficulty
intermediate
"Already There" from the album "A Storm In Heaven".

Intro/Verse:
G---------------------------------------|
D-------------------------7-------7---7-|
A-----7---------7------7---7-----7-7-7--|
E--7---7-----7---7----------------------|

Pre-Chorus Riff:
G--------------------------------|
D--------------------------------|
A------------------7-7-7-7-7-7-7-|
E-7-7-7-7-7-7-7-7----------------|

"..And I watch them come back.."
G-----------------------------------------------------------------------|
D-----------------------------------------------------------------------|
A-------------------------------------7---5-7-5/7-5/7---7---5-7-5/7-5/7-|
E--7---5-7-5/7-5/7---7---5-7-5/7-5/7------------------------------------|

Interlude:
G-----------------|
D-----------------|
A-----------------|
E---/7--/7--/7----|

Outro:
G------------------------------------------|
D------------12h14-------------------------|
A-----12h14-----------12-----7---------7---| 
E-7-----------------------7---7-----7---7--|
Suggest correction
Give kudos to tab author, rate the tab!
1 2 3 4 5
comments
print report bad tab
guest
You may want to rate the tab now too:
select rating
Wanna post a correction for this tab? Suggest correction