Oops, an error
Loading. Please wait.

Bittersweet Symphony Tab

version 2
version 2

Intro

Interactive

73,329 views 90 this week
5 commentsread comments
1 2 3 4 5
x 37
add to favorites
launch autoscroll
font size
0
reset
how to read this tab
guitar tuner
backing track
0:00
0:00
Autoscroll
slow
fast
+/-
esc
set tempo
stop
Author
Bittersweet Symphony - The Verve
Tabbed by:Kevin Mulder  
Email:Mulder_k2@hotmail.com     
This is the CORRECT way to play the intro.  All the others I've seen are wrong.
Tuning:Standard

e|------------------10----10-9----9-----------------10----10-9----9--------|
B|--9-12-9-10----10----10------10---9-12-9-10----10----10------10----------|
G|------------11------------------------------11---------------------------|
D|-------------------------------------------------------------------------|
A|-------------------------------------------------------------------------|
E|-------------------------------------------------------------------------|

[Guitar 2]
e|-------------------------------------------------------------------------|
B|-------------------------------------------------------------------------|
G|-------------------------------------------------------------------------|
D|-------------------------------------------------------------------------|
A|--7------------5------------------7-------------5------------------------|
E|---------7---------------5----------------7----------------5-------------|
Suggest correction
comments
print report bad tab
5 comments total. Showing first comments.
+19 reply
Alfieri 10 Dec 13, 2006 01:23 AM

well this is ultimate GUITAR... not ultimate violin... good tab.

0 reply
chrismiller 42 Jan 27, 2013 01:37 AM

I think this one's quite correct but sounds better with a slide at the beginning. Goes like this:

e-------------------10----10---9----9----
B-9/12-9-10----10------10--------10------
G-----------11---------------------------
/tab]

guest
You may want to rate the tab now too:
select rating
Wanna post a correction for this tab? Suggest correction