Oops, an error
Loading. Please wait.

Bittersweet Symphony Tab

version 3
version 3

Intro

Interactive

208 views 3 this week
no commentswrite comment
1 2 3 4 5
2 more votes to show rating
add to favorites
launch autoscroll
font size
0
reset
how to read this tab
guitar tuner
×
Best way to learn
"Bittersweet Symphony"
Autoscroll
slow
fast
+/-
esc
set tempo
stop
Author
Difficulty
Capo
  follow
intermediate
2nd fret
[Intro]
      D      Cadd9     Csus2      G
e|-2------|-3-------|-3-------|-3------|
B|--------|---------|---------|--------|
G|--------|---------|---------|--------|
D|-0------|-2-------|---------|--------|   x8
A|--------|---------|-3-------|--------|
E|--------|---------|---------|-3------|

e|-----7----5----5--|10-----10--9-----9-|
B|---9---9-----7----|----10--------10---|
G|------------------|-----------0-------|
D|-0----------------|-------------------|  x4
A|----------0-------|-------------------|
E|------------------|10-----------------|

__________________________________________
|                                          |
| And then you can do the whole song with: |
|                                          |
|        || D  Cadd9 | Csus2  G ||         |             
|          ↓ ↓ ↑↓↑↓↓     ↓ ↓ ↑↓↑↓↓         |
|                                          |
|__________________________________________|
Suggest correction
Give kudos to tab author, rate the tab!
1 2 3 4 5
comments
print report bad tab
guest
You may want to rate the tab now too:
select rating
Wanna post a correction for this tab? Suggest correction