Oops, an error
Loading. Please wait.

Blue Pacific Ocean chords

464 views 3 this week
no commentswrite comment
1 2 3 4 5
x 3
add to favorites
×
Save as Personal and add changes to this tab that will be seen only by you. Learn more ›
×
You can save this tab as Personal to edit and correct it or add notes. All changes will be seen only by you. Learn more »
launch autoscroll
font size
0
reset
transpose
0
reset
simplify chords
display chords
guitar tuner
edit
Autoscroll
slow
fast
+/-
esc
set tempo
stop
Strumming
There is no strumming pattern for this song yet. and get +5 IQ
Artist: The Verve
Title: Blue Pacific Ocean
Tabbed by: liamblackrebel

    E6sus4          A7sus2     G   F#m   Em   
e---0---------------0----------3----2----0--------------------------|
b---5---------------3----------3----2----0--------------------------|
G---6---------------4----------0----2----0--------------------------|
D---7---------------5----------0----4----2--------------------------|
A---0---------------0----------2----4----2--------------------------|
E------------------------------3----2----0--------------------------|

(Note: You can add slow little pull off's with the E6sus4 and A7sus2 Chords and use additional fills,
 as shown below, while playing the bridge and chorus)

    E6sus4          A7sus2       A7sus2 Fills
e---0---------------0-------------3--2--0--0-------
b---5p0-------------3p0-----------0--0--0--3-------
G---6---------------4-------------4--4--4--4-------
D---7---------------5-------------5--5--5--5-------
A---0---------------0-------------0--0--0--0-------
E--------------------------------------------------


[Intro] 

E6sus4 A7sus2 E6sus4 A7sus2

[Verse1]

E6sus4       A7sus2 
Blue pacific ocean
          E6sus4      A7sus2 
Making me seasick for home
E6sus4  A7sus2
Red red sunset
     E6sus4
Just reminds me
                    A7sus2
Tomorrow will never come


[Bridge]

E6sus4        A7sus2
It's oh so easy
                    E6sus4 
It's oh so easy for love
              A7sus2
It's oh so easy

It's oh so easy


[Chorus]

E6sus4  A7sus2
Try     for one time
      E6sus4
To be real
        A7sus2
Real to me
Like never before


[Verse2]

E6sus4       A7sus2 
Blue pacific ocean
          E6sus4      A7sus2 
Making me seasick for home

[Solo] (Played with a bottleneck)

e---------------------------------------------------------------------------|
b---------------------------------------------------------------------------|
G---------------------------------------------------------------------------|
D---9s11s9s11s9-9s14---9s11s9s11s9-----7s9s7s9s7----9s11s9s11s9-------------|
A----------------------------------10------------9--------------10----------|
E---------------------------------------------------------------------------|

[Verse3]

E6sus4       A7sus2 
Blue pacific ocean
          E6sus4      A7sus2 
Making me seasick for home
E6sus4  A7sus2
Red red sunset
     E6sus4
Only reminds me
                    A7sus2
Tomorrow will never come


[Break]
G                    Bm
Sometimes I dream of spaces
                 A
And I never see love in my life
              G
Whichever way I go, think of you
                 E6sus4 
Oh love, I never forget


[Bridge]

E6sus4        A7sus2
It's oh so easy
                    E6sus4 
It's oh so easy for love
              F#m
It's oh so easy
              G
It's oh so easy
                  Em
Oh, it's oh so easy
                        F#m
Oh, it's oh so easy for love
                  Em
Oh, it's oh so easy
                  E6sus4
Oh, it's oh so easy


[Verse3]

E6sus4       A7sus2 
Blue pacific ocean
          E6sus4      A7sus2 
Making me seasick for home
E6sus4  A7sus2
Red red sunset
     E6sus4
Just reminds me
                    A7sus2
Tomorrow will never come
Tomorrow will never come
Tomorrow will never come

            
            
Suggest correction
Creating personal tab
Creating personal tab
You can edit any tab online and save it as your Personal.

You can edit, replace or remove any tab part or add personal notes – all changes will be seen only by you.

Personal tabs can be accessed anytime from any device, even offline.
Learn more »
Give kudos to tab author, rate the tab!
1 2 3 4 5
comments
print report bad tab
guest
You may want to rate the tab now too:
select rating
Wanna post a correction for this tab? Suggest correction