Oops, an error
Loading. Please wait.

Lucky Man Bass Tab

version 1
version 1

Whole song

Interactive

4,581 views 27 this week
no commentswrite comment
1 2 3 4 5
please rate
add to favorites
launch autoscroll
font size
0
reset
guitar tuner
Autoscroll
slow
fast
+/-
esc
set tempo
stop
Help us to improve Ultimate-Guitar.com Take our survey!
×
-------------------------------------------------------------------------------
			     Lucky Man - The Verve
-------------------------------------------------------------------------------

Tabbed By : bassskittles81
e-mail:

Tuning:Standard ( EADG )

 Listen for rhythm and timing. Not a difficult track to play. 1st one I've tabbed

Verse:

G|---------------------------------------------------------------------------|
D|---------------------------------------------------------------------------|
A|-----5-5-------------------------------------------------------------------|
E|-3-3-----5-5---------------------------------------------------------------|

Pre chorus
G|---------------------------------------------------------------------------|
D|---------------------------------------------------------------------------|
A|----------------5-5-5-5----------------------------------------------------|
E|-0-0-0-0-3-3-3-3-------5-5-5-5---------------------------------------------|

Chorus
G|---------------------------------------------------------------------------|
D|---------------------------5h7---------------------------------------------|
A|-----5-55--------------5h7-------------------------------------------------|
E|-3-33----5-55-5-5-5-5------------------------------------------------------|

That's it!! Only 3 parts to the song. Enjoy.

| /  slide up
| \  slide down
| h  hammer-on
| p  pull-off
| ~  vibrato
| +  harmonic
| x  Mute note
Suggest correction
Give kudos to tab author, rate the tab!
1 2 3 4 5
comments
print report bad tab
guest
You may want to rate the tab now too:
select rating
Please do not post tabs as comments. Select "correction" instead!