Oops, an error
Loading. Please wait.

Lucky Man Tab

version 2
version 2

Whole song

Interactive

Video

7,098 views 1 this week
no commentswrite comment
1 2 3 4 5
please rate
add to favorites
launch autoscroll
font size
0
reset
how to read this tab
guitar tuner
Autoscroll
slow
fast
+/-
esc
set tempo
stop
Help us to improve Ultimate-Guitar.com Take our survey!
×
Contributor
Difficulty
intermediate
Very easy song to play once you get the hang of it... It's basically 3 chords, G D and A 
a few notes added and taken off...

Standard Tuning, and between the lines shown add an 'upstroke'. Listen to the song for rhythm.

Intro.
(G)    (D)      (A)
e:--3-3--3-2-0-0--0-0-0-0--|
b:--3-3--3-3-3-0--0-2-2-0--|
g:--0-0--2-2-2-2--2-2-2-2--|
d:--0-0--0-0-0-0--2-2-2-2--|
a:--2-2-----------0-0-0-0--|
e:--3-3--------------------|

Verse. "Happiness, more or less..."
(G)    (D)      (A)
e:--3-3--3-2-0-0--0-0-0-0--|
b:--3-3--3-3-3-0--0-2-2-0--|
g:--0-0--2-2-2-2--2-2-2-2--|
d:--0-0--0-0-0-0--2-2-2-2--|
a:--2-2-----------0-0-0-0--|
e:--3-3--------------------|


Bridge. "How many corners do i have to turn..."
(Em)  (G) (D)        (A)
e:--0--3--2-3-2-0-0--0--|
b:--0--3--3-3-3-3-0--2--|
g:--0--0--2-2-2-2-2--2--|
d:--2--0--0-0-0-0-0--2--|
a:--2--2-------------0--|
e:--0--3----------------|

Chorus. "Well i'm a lucky man..."
(G)    (D)      (A)
e:--3-3--3-2-0-0--0-0-0-0--|
b:--3-3--3-3-3-0--0-2-2-0--|
g:--0-0--2-2-2-2--2-2-2-2--|
d:--0-0--0-0-0-0--2-2-2-2--|
a:--2-2-----------0-0-0-0--|
e:--3-3--------------------|
comments
We did not receive enough feedback on this tab! Please rate:
print report bad tab
1 2 3 4 5
I want to post or [tab]
guest
You may want to rate the tab now too:
select rating
Please do not post tabs as comments. Select "correction" instead!