Oops, an error
Loading. Please wait.

Reverend Girl Acoustic tab

899 views 1 this week
4 commentsread comments
1 2 3 4 5
x 5
add to favorites
×
Save as Personal and add changes to this tab that will be seen only by you. Learn more ›
×
You can save this tab as Personal to edit and correct it or add notes. All changes will be seen only by you. Learn more »
launch autoscroll
font size
0
reset
how to read this tab
guitar tuner
edit
Autoscroll
slow
fast
+/-
esc
set tempo
stop
Author
Difficulty
Fun Song.  a good solo song.

verse (repeat the pattern):
e--------------------------------------|
b--------------------------------------|
G-------0-------0--------0-------0-----|
D-----0-------0--------0-------0-------|
A---5-------8--------7-------3---------|
E-3-------6--------5-------1-----------|
                  "We are for today..."

bridge:
    C          Dadd4        Asus4      G7sus4
e------------------------------0-----------------------|
b-------1----------3---------3---0-----1-1p0-----------|
G-----0----0-----0-----0---2---------0-------0---------|
D---2----------------4---0---------3-------------------|
A-3----------3/5---------------------------------------|
E------------------------------------------------------|
One a.m. rummaging....


Chorus (repeat...):
   D/A   Gmaj7/B Cadd9
e--2------2------3--------------------|
b--3------3------3--------------------|
G--2------0------0--------------------|
D--0------0------2--------------------|
A--0------2------3--------------------|
E-------------------------------------|
                With a reverend girl...


that's it.  have fun.  remember to rate, etc.
-drew

            
            
Suggest correction
Creating personal tab
Creating personal tab
You can edit any tab online and save it as your Personal.

You can edit, replace or remove any tab part or add personal notes – all changes will be seen only by you.

Personal tabs can be accessed anytime from any device, even offline.
Learn more »
comments
print report bad tab
4 comments total. Showing first comments.
0 reply
MattFoley122 10 Jul 28, 2009 09:42 PM

I think the Gmaj7/B chord sounds better just as a regular G chord.

0 reply
starflyer3000 10 Feb 27, 2010 06:47 PM

Great tab; it's just missing the "Now my lover wakes me..." bridge.

0 reply
MisterDub 31 Jun 25, 2012 09:57 PM

Excellent job, Drew!  I think the D and G strings ought to be picked in reverse order for the verse, but the rest is spot on.  And here's the missing Bridge (what is labeled as the Bridge in the original tab is more accurately the Pre-Chorus):

B5addG G Asus2
e-----------------------0-|
B-----0-------0-------7---|
G-------0-------0---------|
D-------------------------|
A---9-------5-------7-----|
E-7-------3-------5-------|

Corrected Verse:

G Bb6 Asus2 F6sus2
e--------------------------------------|
b--------------------------------------|
G-----0-------0--------0-------0-------|
D-------0-------0--------0-------0-----|
A---5-------8--------7-------3---------|
E-3-------6--------5-------1-----------|

-Matt

guest
You may want to rate the tab now too:
select rating
Wanna post a correction for this tab? Suggest correction