Oops, an error
Loading. Please wait.

Comin Down Bass Tab

1,206 views 1 this week
no commentswrite comment
1 2 3 4 5
1 last vote to show rating
add to favorites
launch autoscroll
font size
0
reset
guitar tuner
Autoscroll
slow
fast
+/-
esc
set tempo
stop
Help us to improve Ultimate-Guitar.com Take our survey!
×
Author
Difficulty
novice
There are two ways of playing the verse there is this one below


G|--------------------------------------------------------------------------|
D|--------------------------------------------------------------------------|
A|----7 7 7 7 7 7 5 6---7 7 7 7 7 7 5 6-------------------------------------|
E|--------------------------------------------------------------------------|

And ther is this version
[ i would recommend thre 1st option ]
G|--------------------------------------------------------------------------|
D|--------------------------------------------------------------------------|
A|---7 7 7 7 7 7 --------7 7 7 7 7 7----------------------------------------|
E|-----------------5 7---------------5 7------------------------------------|

intro
G|---------------------------------------------------------------------------|
D|---------------------------------------------------------------------------|
A|---7 7 7 7 7 7-56--7 7 7 7 7 7 56---7 7 7 7 7 7  56- 7~--------------------|
E|---------------------------------------------------------------------------|

verse
G|--------------------------------------------------------------------------|
D|--------------------------------------------------------------------------|
A|---7 7 7 7 7 7----- 7 7 7 7 7 7------7-7-7-7-7-7-------7-7-7-7-7-7--------|
E|----------------5 7-------------5 7---------------5-7---------------5-7---|
do this twice with it ending on 7 continuously

chorus these are tens not 1's and 0's
G|--------------------------------------------------------------------------|
D|--------------------------------------------------------------------------|
A|-------10 10 10 10-10-10-10-10-9-9-9-9-8-8-8-8 7-7-7-7-7-7-5 6--77777777--|
E|--------------------------------------------------------------------------|
this is sometimes at the end of the chorus
G|--------------------------------------------------------------------------|
D|--------------------------------------------------------------------------|
A|------9-9-9-9-9-9-9-9 -12-12-12-12-14-14-14-14----------------------------|
E|--------------------------------------------------------------------------|

  this bit is where it goes quiet after the second chorus
G|--------------------------------------------------------------------------|
D|--------------------------------------------------------------------------|
A|---7-7-7-7-7-7-5-6-7-7-7-7-7-7-5-6---7 ~ ---------------------------------|
E|--------------------------------------------------------------------------|

just continue this bit until the rest of the song the chorus will appear once
G|---------------------------------------------------------------------------|
D|---------------------------------------------------------------------------|
A|---7-7-7-7-7-7-5-6-7-7-7-7-7-7-5-6-7-7-7-7-7-7-5-6-------------------------|
E|---------------------------------------------------------------------------|


please dont say itz bad itz my 1st tab ever so please dont get angry hope you like it
Suggest correction
Give kudos to tab author, rate the tab!
1 2 3 4 5
comments
print report bad tab
guest
You may want to rate the tab now too:
select rating
Wanna post a correction for this tab? Suggest correction