Oops, an error
Loading. Please wait.

Don Tab

version 1
version 1

Whole song

8,497 views 12 this week
4 commentsread comments
1 2 3 4 5
worth learning
x 4
add to favorites
launch autoscroll
font size
0
reset
how to read this tab
guitar tuner
Autoscroll
slow
fast
+/-
esc
set tempo
stop
Help us to improve Ultimate-Guitar.com Take our survey!
×
Author
Difficulty
novice
This song i've tabbed from watching them play it live. So it is pretty accurate.

Standard Tuning

Pete lead guitar:
intro
e|-2h3p2h3p2h3p2-------- dont know how long it lasts, but its bout 20--|
B|---------------------- 30--------------------------------------------|secs before the verse riff starts.
G|---------------------------------------------------------------------|
D|---------------------------------------------------------------------|
A|---------------------------------------------------------------------|
E|---------------------------------------------------------------------|

verse
e|-3----0---2h3p2p0-2-3-|
B|----------------------|
G|----------------------|
D|----------------------|
A|----------------------|
E|----------------------|

Kyle Rhythm:
e|--3-3-x-3-x-3-x-3-x-3-3-7-7-x-7-x-7-x-7-x-7-7-|
B|--3-3-x-3-x-3-x-3-x-3-3-8-8-x-8-x-8-x-8-x-8-8-|
G|--4-4-x-4-x-4-x-4-x-4-4-9-9-x-9-x-9-x-9-x-9-9-|
D|--5-5-x-5-x-5-x-5-x-5-5-9-9-x-9-x-9-x-9-x-9-9-|
A|--5-5-x-5-x-5-x-5-x-5-5-7-7-x-7-x-7-x-7-x-7-7-|
E|--3-3-x-3-x-3-x-3-x-3-3-----------------------|


e|-8--8--x-8--x-8--x-8--x--8--8--10-10-x-10-x-10-x-10-x-10-10-|
B|-8--8--x-8--x-8--x-8--x--8--8--10-10-x-10-x-10-x-10-x-10-10-|
G|-9--9--x-9--x-9--x-9--x--9--9--11-11-x-11-x-11-x-11-x-11-11-|
D|-10-10-x-10-x-10-x-10-x--10-10-12-12-x-12-x-12-x-12-x-12-12-|
A|-10-10-x-10-x-10-x-10-x--10-10-12-12-x-12-x-12-x-12-x-12-12-|
E|-8--8--x-8--x-8--x-8--x--8--8--10-10-x-10-x-10-x-10-x-10-10-|


listen to the song to get the right rhythm. also for the chorus B comes in after the G 
so it will be 799877 [EADGBe] in the same timing as the verses.

Real good song. Hope i haven't upset all view fans.

Any comments changes email @ arenton2002@aol.com
Suggest correction
What's this?
You can suggest a correction to this tab. Community and Mods will review your correction and vote to approve or reject it.
comments
print report bad tab
4 comments total. Showing first comments.
0 reply
craigyt2k 214 wrote on February 26 2007, 05:53 pm

some chords are right, good effort

0 reply
atrayhorn 190 wrote on July 18 2007, 02:18 pm

ye good effort but theres more to it than that

0 reply
petewentzboy 180 wrote on August 11 2007, 03:35 pm

btw the bit before the verse goes:

e--------------10--8-7h8p7---------------------10-7h8p7------
B-8/10--8---7-----------------8/10-8---8/10-8----------------

then the verse

guest
You may want to rate the tab now too:
select rating
Please do not post tabs as comments. Select "correction" instead!