Oops, an error
Loading. Please wait.

Don Tab

version 2
version 2

Whole song

9,306 views 1 this week
6 commentsread comments
1 2 3 4 5
excellent!
x 7
add to favorites
launch autoscroll
font size
0
reset
how to read this tab
guitar tuner
Autoscroll
slow
fast
+/-
esc
set tempo
stop
Help us to improve Ultimate-Guitar.com Take our survey!
×
Author
Difficulty
intermediate
This song is tabed by me; Paul Kramer
any questions dont bother e-mailing, try to fix em and let me now by posting a fix update thing.

Rythm Guitar
Intro, Play with G5

----------------------------------------|
---3---3-----8---8----8---8-----10---10-|
---4---4-----9---9----9---9-----11---11-| x2
---5---5-----9---9----10--10----12---12-|
-----5-----7------------10---------12---|
-3-------------7----8---------10--------|

---------------------------------------|
---3---3-----8---8----7---7----8---8---|
---4---4-----9---9----7---7----9---9---|
---5---5-----9---9----9---9----10--10--|
-----5-----7------------9--------10----|
-3-------------7-----7--------8--------|
Thinking of poems of poverty

---------------------------------------|
---3---3-----8---8----7---7----5---5---|
---4---4-----9---9----7---7----5---5---|
---5---5-----9---9----9---9----7---7---|
-----5-----7------------9--------7-----|
-3-------------7----7---------5--------|
Sitting with a tight clenched wrist, thinking how to gain authority

---------------------------------------|
---3---3-----8---8----7---7----8---8---|
---4---4-----9---9----7---7----9---9---|
---5---5-----9---9----9---9----10--10--|
-----5-----7------------9--------10----|
-3-------------7-----7--------8--------|
Oh what a soft touch of a boy

-----------------------------------------------------------------|
---3---3-----8---8----7---7----5---5----5---5----10--10--10--10--|
---4---4-----9---9----7---7----5---5----5---5----11--11--11--11--|
---5---5-----9---9----9---9----7---7----7---7----12--12--12--12--|
-----5-----7------------9--------7--------7------12--12--12--12--|
-3-------------7-----7--------5--------5---------10--10--10--10--|
He�d wander with pride to sell and keep visions to his self Visions to his self

--------------------------------------|
---3---3-----8---8----8---8----10--10-|
---4---4-----9---9----9---9----11--11-|
---5---5-----9---9----10--10---12--12-|
-----5-----7------------10-------12---|
-3-------------7----8--------10-------|
We�d talk of treasures, and over-rated games

---------------------------------------|
---3---3-----8---8----7---7----5---5---|
---4---4-----9---9----7---7----5---5---|
---5---5-----9---9----9---9----7---7---|
-----5-----7------------9--------7-----|
-3-------------7-----7--------5--------|
We�d steal the milk bottles, sneaking through the back round Jimmy�s way.

G5----Bm-----Em-Em-Em-Em-Em-Em-Em-Em
What we loved most of all, was sitting round the shop, while this poor boy was sitting all alone,

C5-C5---C5-D7-D7-
Sitting all alone

-----------------------------|
---3---3-----8---8----8---8--|
---4---4-----9---9----9---9--|
---5---5-----9---9----10--10-|
-----5-----7------------10---|
-3-------------7-----8-------|

---------------------------------------|
---3---3-----8---8----7---7----8---8---|
---4---4-----9---9----7---7----9---9---|
---5---5-----9---9----9---9----10--10--|
-----5-----7------------9--------10----|
-3-------------7----7---------8--------|
Pondering times of sanctuary

---------------------------------------|
---3---3-----8---8----7---7----5---5---|
---4---4-----9---9----7---7----5---5---|
---5---5-----9---9----9---9----7---7---|
-----5-----7------------9--------7-----|
-3-------------7----7--------5---------|
He was sitting taking his piano lessons, we were on half an E

---------------------------------------|
---3---3-----8---8----7---7----8----8--|
---4---4-----9---9----7---7----9----9--|
---5---5-----9---9----9---9----10--10--|
-----5-----7------------9--------10----|
-3-------------7----7---------8--------|
Invested life in medicine, Thats not the right way to go

----------------------------------------------------------------|
---3---3-----8---8----7---7----5---5----5---5---10--10--10--10--|
---4---4-----9---9----7---7----5---5----5---5---11--11--11--11--|
---5---5-----9---9----9---9----7---7----7---7---12--12--12--12--|
-----5-----7------------9--------7--------7-----12--12--12--12--|
-3-------------7----7---------5--------5--------10--10--10--10--|
had so much shit going on. Convinced he�d never win. Convinced he was a sin.

-------------------------------------------|
---3---3-----8---8----8---8-----10--10-----|
---4---4-----9---9----9---9-----11--11-----|
---5---5-----9---9----10--10----12--12-----|
-----5-----7------------10--------12-------|
-3-------------7-----8--------10-----------|
We�d speak of women and cheaper carryouts

--------------------------------------------|
---3---3-----8---8----7---7----5---5--------|
---4---4-----9---9----7---7----5---5--------|
---5---5-----9---9----9---9----7---7--------|
-----5-----7------------9--------7----------|
-3-------------7----7---------5-------------|
We�d turn up to all the festivals, trying to bring down the touts,

------------------------------------------------------|
---3---3-----7---7----8---8----8---8----8---8---8---8-|
---4---4-----8---8----9---9----9---9----9---9---9---9-|
---5---5-----9---9----9-9-9----9-9-9----9-9-9---9-9-9-|
-----5---------9----9---------9--------9-------9------|
-3---------7------------------------------------------|
What we love the most of all was sittin� at the shop, while this young boy was 
all alone,

C5-C5---C5-D7-D7
Sittin� all alone

--------------------------------------|
---3---3-----8---8----8---8----10--10-|
---4---4-----9---9----9---9----11--11-|
---5---5-----9---9----10--10---12--12-|
-----5-----7------------10-------12---|
-3-------------7----8--------10-------|
We�d talk of treasures and overrated games

---------------------------------------|
---3---3-----8---8----7---7----5---5---|
---4---4-----9---9----7---7----5---5---|
---5---5-----9---9----9---9----7---7---|
-----5-----7------------9--------7-----|
-3-------------7----7---------5--------|
We�d steal the milk bottles, sneaking through the back round Jimmy�s way.

-G5----Bm-----Dm-Dm-Dm-Dm-Dm-Dm-Dm-Dm
What we loved most of all, was sitting at the shop, while this poor boy was sitting all alone,

-D#m-D#m-D#m-D#m-A#m-A#m-A#m-A#m-
He couldn�t find none of his own kind,
-C#m-C#m-C#m-C#m-G#m-G#m-G#m-G#m-
he didn�t have none of his own kind
-Em-Em-Em-Em-Bm-Bm-Bm-Bm-Bm
You should take interest in his mind,
-Am-Am-Am-Am-B-B-D-D-
not spend all of his time wastin all his money and time

---------------------------------------|
---3---3-----8---8----7---7----8---8---|
---4---4-----9---9----7---7----9---9---|
---5---5-----9---9----9---9----10--10--|
-----5-----7------------9--------10----|
-3-------------7----7---------8--------|
Thinking of poems of poverty

---------------------------------------|
---3---3-----8---8----7---7----5---5---|
---4---4-----9---9----7---7----5---5---|
---5---5-----9---9----9---9----7---7---|
-----5-----7------------9--------7-----|
-3-------------7----7---------5--------|
Sitting with a tight clenched wrist, thinking how to gain authority

---------------------------------------|
---3---3-----8---8----7---7----8---8---|
---4---4-----9---9----7---7----9---9---|
---5---5-----9---9----9---9----10--10--|
-----5-----7------------9--------10----|
-3-------------7----7---------8--------|
Oh what a soft touch of a don

-----------------------------------------------------------------|
---3---3-----8---8----7---7----5---5----5---5----10--10--10--10--|
---4---4-----9---9----7---7----5---5----5---5----11--11--11--11--|
---5---5-----9---9----9---9----7---7----7---7----12--12--12--12--|
-----5-----7------------9--------7--------7------12--12--12--12--|
-3-------------7----7---------5--------5---------10--10--10--10--|
He�d wander with pride to sell and keep visions to his self
Visions to his self

--------------------------------------|
---3---3-----8---8----8---8----10--10-|
---4---4-----9---9----9---9----11--11-|
---5---5-----9---9----10--10---12--12-|
-----5-----7------------10-------12---|
-3-------------7----8---------10------|
We�d talk of treasures, and over-rated games

---------------------------------------|
---3---3-----8---8----7---7----5---5---|
---4---4-----9---9----7---7----5---5---|
---5---5-----9---9----9---9----7---7---|
-----5-----7------------9--------7-----|
-3-------------7----7---------5--------|
We�d steal the milk bottles, sneaking through the back round Jimmy�s way.


G5----Bm-----Em-Em-Em-Em-Em-Em-Em-Em-
What we loved most of all, was sitting round the shop, while this poor boy was
C-C--D-D-
sitting all alone, Sitting all alone

(Start playing these more as chords)

--------------------------------------|
---3---3-----8---8----8---8----10--10-|
---4---4-----9---9----9---9----11--11-|
---5---5-----9---9----10--10---12--12-|
-----5-----7------------10-------12---|
-3--------------7----8--------10------|
We�d talk of treasures, and over-rated games

--------------------------------------------|
---3---3-----8---8----7---7----5---5--------|
---4---4-----9---9----7---7----5---5--------|
---5---5-----9---9----9---9----7---7--------|
-----5-----7------------9--------7----------|
-3-------------7----7---------5-------------|
We�d steal the milk bottles, sneaking through the back round Jimmy�s way.

G5----Bm-----Em--Em--Em--Em-
What we loved most of all was hanging round the shop
G5----Bm-----Em--Em--Em--Em-
What we loved most was sitting round the shop
G5----Bm-----Em--Em--Em--Em-
What we loved most was standing at the Dryburgh shop,
G5----Bm-----Em--
What we loved the most was hanging round the shop while he was all alone


LeadGuitar
--------------------------------10-8-7h6p7--------------------------10--8—7h8p7--------|
---7h8p7h8p7h8p7h8p7h10--8--7----------------8-10-8--8-10-8---8----------------------8-|
---------------------------------------------------------------------------------------|
---------------------------------------------------------------------------------------|
---------------------------------------------------------------------------------------|
---------------------------------------------------------------------------------------|
                            * *** *               *
---------------------------------------------------------------------------------|
-5---7----8----8----5---7---7-5-7--5-7--8---5---7—7-8--7--5--7--8----5----7----5-|
-------------------------------7-------------------------------------------------|
---------------------------------------------------------------------------------|
---------------------------------------------------------------------------------|
---------------------------------------------------------------------------------|

------------------|
-7----5----4----2-|
-0----0---------0-|
------------------|
------------------|
------------------|

---7------7--7-12-12--12--14-14-14-----------|
-8-8--8-8-8--8-13-13--13--15-15-15-----------|
-7-7--7-9-9--9-12-12--12--14-14-14-----------|
---------------------------------------------|
---------------------------------------------|
---------------------------------------------|

-7-7--7-7-7--7-----10----------8--------7----11-----7-7-7-7-7-7-7-7-7--s/12-12---s/14-14---|
-8-8--8-8-8--8---12--12------10--10-----8----12-----8-8-8-8-8-8-8-8-8--s/13--13--s/15--15--|
-7-7--7-9-9--9-11-------11s\9------9----7----11-----9-9-9-9-9-9-9-9-9--s/12---12-s/14---14-|
-------------------------------------------------------------------------------------------|
-------------------------------------------------------------------------------------------|
-------------------------------------------------------------------------------------------|

-------------------------|
--8---7-8--7--10-7-8-----|
-------------------------|
-------------------------|
-------------------------|
-------------------------|


                            * * ** *              *
---------------------------------------------------------------------------------|
-5---7----8----8----5---7---7-5-7--5-7--8---5---7—7-8--7--5--7--8----5----7----5-|
---------------------------------7-----------------------------------------------|
---------------------------------------------------------------------------------|
---------------------------------------------------------------------------------|
---------------------------------------------------------------------------------|

---------------------|
-7----5----4----2----|
-0----0---------0----|
---------------------|
---------------------|
---------------------|

---7------7--7-12-12--12--14-14-14----|
-8-8--8-8-8--8-13-13--13--15-15-15----|
-7-7--7-9-9--9-12-12--12--14-14-14----|
--------------------------------------|
--------------------------------------|
--------------------------------------|

-7-7--7-7-7--7-----10----------8-------7--7--7--11--11--11-|
-8-8--8-8-8--8---12--12------10-10-----8--8--8--12--12--12-|
-7-7--7-9-9--9-11-------11s\9-----9----7--7--7--11--11--11-|
-----------------------------------------------------------|
-----------------------------------------------------------|
-----------------------------------------------------------|

-7-7-7-7-7-7-7-7-7--s/12-12---s/14-14---|
-8-8-8-8-8-8-8-8-8--s/13--13--s/15--15--|
-9-9-9-9-9-9-9-9-9--s/12---12-s/14---14-|
----------------------------------------|
----------------------------------------|
----------------------------------------|

---7------7--7-12-12--12--14-14-14-|
-8-8--8-8-8--8-13-13--13--15-15-15-|
-7-7--7-9-9--9-12-12--12--14-14-14-|
-----------------------------------|
-----------------------------------|
-----------------------------------|


-7-7--7-7-7--7-----10----------8-------7----11-----10-10-10-10-10-10-10-10-|
-8-8--8-8-8--8---12--12------10-10-----8----12-----11-11-11-11-11-11-11-11-|
-7-7--7-9-9--9-11-------11s\9-----9----7----11-----12-12-12-12-12-12-12-12-|
---------------------------------------------------------------------------|
---------------------------------------------------------------------------|
---------------------------------------------------------------------------|

-D#m-D#m-D#m-D#m-A#m-A#m-A#m-A#m--|
-C#m-C#m-C#m-C#m-G#m-G#m-G#m-G#m--|
----------------------------------|Em-Em-Em-Em-Bm-Bm-Bm-Bm-Bm
-Am-Am-Am-Am-B-B-D-D--------------|

                            * * ***            *
--------------------------------------------------------------------------------|
-5---7----8----8----5---7---7-5-7-5-7--8---5---7—7-8--7--5--7--8----5----7----5-|
---------------------------------7----------------------------------------------|
--------------------------------------------------------------------------------|
--------------------------------------------------------------------------------|
--------------------------------------------------------------------------------|

------------------|
-7----5----4----2-|
-0----0---------0-|
------------------|
------------------|
------------------|

---7------7--7-12-12--12--14-14-14----|
-8-8--8-8-8--8-13-13--13--15-15-15----|
-7-7--7-9-9--9-12-12--12--14-14-14----|
--------------------------------------|
--------------------------------------|
--------------------------------------|

-7-7--7-7-7--7-----10----------8-------7--7--7--11--11--11--|
-8-8--8-8-8--8---12--12------10-10-----8--8--8--12--12--12--|
-7-7--7-9-9--9-11-------11s\9-----9----7--7--7--11--11--11--|
------------------------------------------------------------|
------------------------------------------------------------|
------------------------------------------------------------|

-7-7-7-7-7-7-7-7-7---|
-8-8-8-8-8-8-8-8-8---|
-9-9-9-9-9-9-9-9-9---|   C-C-C-C-D-D-D-D
---------------------|
---------------------|
---------------------|

---G---Em---C---D----G---Em---Bm---Am--|
---G----B---Em-Em-Em-Em----------------|
---G----B---Em-Em-Em-Em----------------|
---G----B---Em-Em-Em-Em----------------|
---G----B------------------------------|Em
Suggest correction
comments
print report bad tab
6 comments total. Showing first comments.
0 reply
Rich Whiting 169 wrote on March 7 2007, 10:58 am

Spot on, good lad.

0 reply
craigyt2k 20 wrote on March 9 2007, 03:02 pm

thank you very much, i wont rate it yet though

+1 reply
smashingme 10 wrote on October 26 2007, 02:19 pm

the first G on the E string should be an E on the D string for the rest good job and thnx!

guest
You may want to rate the tab now too:
select rating
Please do not post tabs as comments. Select "correction" instead!