Oops, an error
Loading. Please wait.

Grans For Tea Chords

2,499 views 3 this week
no commentswrite comment
1 2 3 4 5
excellent!
x 3
add to favorites
launch autoscroll
font size
0
reset
transpose
0
reset
simplify chords
display chords
guitar tuner
Autoscroll
slow
fast
+/-
esc
set tempo
stop
Help us to improve Ultimate-Guitar.com Take our survey!
×
Author
Difficulty
novice
A                         F#7
mile long queue in the chippy
        E                       A
i wish i was at my Gran's for tea
                  F#7                           E                  A
these people call me their friend, but they don't think the same as me

C                 Dsus2       C                      Dsus2
   now you fed up chasing your tail round this housing scheme
C                 Dsus2
   drinkin' your drink now
    C   Bm  Am    C     Bm        Am     F
and staying up to early in the morning, ohhh

A                               F#7
wander through the streets of dundee
     E                               A
mum said you shouldn't walk them alone
                               F#7
a fight's a fight, and that's quite alright
             E                      A
ah but please leave the tools at home

C                   Dsus2       C                           Dsus2
   now you fed up chasing your tail round this housing estate
C                Dsus2
   drinkin' your drink now
    C   Bm  Am    C     Bm        Am     F
and staying up to early in the morning, ohhh

Guitar solo:
   A             F#m           E                  A    Asus2
e|-------------|-------------|------------------|--------5---|
b|------5------|-------------|------------5-----|--------5-5-|
g|-4b6-----4b6-|-4b6--2---2--|-----2-4b6----4b6-|-2----------|
d|-------------|-------------|-2h4--------------|------------|
a|-------------|-------------|------------------|------------|
E|-------------|-------------|------------------|------------|

   A       Asus2        F#m
e|------5--5---5--7p5-|-9--5-7p5--5---5-----5-|
b|-5/7----------------|-----------------7p5---|
g|--------------------|-----------------------|
d|--------------------|-----------------------|
a|--------------------|-----------------------|
E|--------------------|-----------------------|
   E                   A   E  A   E    A   E  A   E
e|-----7-7---7-9p7-7-|-----9--9---9--|-9---9---------|
b|-7s9---------------|-10--9--10--9--|-10--9--10/0---|
g|-------------------|---------------|---------------|
d|-------------------|---------------|---------------|
a|-------------------|---------------|---------------|
E|-------------------|---------------|---------------|

Am                Dm       Em                 Am
   you lower standards and expectations of love
                Dm               Em                      Am
   you never aim for people that you say are levels above
                   Dm          E
   you're always chasing the same skirts round
                  A
round your local pub

                          F#7
where were you when i needed you?
E                        A
  up the posh end of town
                         F#7
you're supposed to protect and serve
                     E                   A 
you're out for a perv just driving around

C                   Dsus2        C                        Dsus2
   now you fed up chasing your tail round this housing scheme
C                 Dsus2
   drinkin' your drink now
     C  Bm  Am     C    Bm        Am
and staying up to early in the morning,
 C  Bm  Am     C    Bm        Am    F
staying up to early in the morning ohhhhhhhhh

A                         F#7
mile long queue in the chippy
        E                        A
i wish i was at my Gran's for tea
                  F#7                         E                   A E A
these people call me their friend, but they don't think the same as.. me
Suggest correction
Give kudos to tab author, rate the tab!
1 2 3 4 5
comments
print report bad tab
guest
You may want to rate the tab now too:
select rating
Wanna post a correction for this tab? Suggest correction