Oops, an error
Loading. Please wait.

Life Chords

version 2
version 2

Whole song

562 views 1 this week
no commentswrite comment
1 2 3 4 5
worth learning
x 3
add to favorites
launch autoscroll
font size
0
reset
transpose
0
reset
display chords
guitar tuner
Autoscroll
slow
fast
+/-
esc
set tempo
stop
Help us to improve Ultimate-Guitar.com Take our survey!
×
Title: Life
Artist: The View
Album: Bread and Circuses


Not enough of this album has been uploaded onto UG, 

excellent song,

comments or corrections more than welcome




Chords used:

G -  355433
D -  #57775
Em - #79987
C -  #35553
B -  799877


Intro - D D Em C
        D D C



Verse 1:

G             D          Em               C
I want you to know, that I've no place to go

G             D                C           C
I want you to see, what you've done to me


G          D    Em               C
Because of him, you've thrown me away,


G                      D              C            C
You could've gone with him, and chose another day




Bridge:

D
Just because your gullible range, 

B
You've made me feel like I'm deranged,

Em                            D               C
And that seems strange, cause you give me the life

Em                            D               C     C
And that seems strange, cause you give me the life



Verse 2:

G                  D          Em            C
I'm feeling almost dead, your messing up my head,

G                D                   C         C
I'm in the wrong direction, still no support,

G              D    Em               C
And because of him, you've thrown me away,

G                  D                      C     C
Could of gone with him, and chose another day



Bridge:

D
The road that you have taken now,

B
Is all because of me somehow,

Em                            D               C
And that seems strange, cause you give me the life,

Em                            D               C      C
And that seems strange, cause you give me the life



Solo:


    Em        D                 C
e|----------------------------------------|
B|------------15--------------------------|
G|--/12-11-12----11---11/12-11------------|
D|------------------------------12-12/14--| 
A|----------------------------------------|
E|----------------------------------------|

    Em        D          C      
e|-----------------------------------------|
B|------------15---------------------------|
G|--/12-11-12----11---11/12----/14-14/16---|
D|-----------------------------------------|
A|-----------------------------------------|
E|-----------------------------------------|

    Em        D                 C
e|---------------------------------------------------|
B|------------15-------------------------------------|
G|--/12-11-12----11---11/12-11-----------------------|
D|------------------------------12-12/14---12/14\12--|
A|---------------------------------------------------|
E|---------------------------------------------------|

    Em        D         C         C
e|------------------------------|
B|------------15--15/17-17------|
G|--/12-11-12-------------------|
D|------------------------------|
A|------------------------------|
E|------------------------------|



Bridge:

D
Just because your gullible range, 

B
You've made me feel like I'm deranged,

Em                            D               C      C   
And that seems strange, cause you give me the life




Chorus:

G         D    Em             C
I love my son, Like you loved one,

G        D             Em          D          C               C
I will become, another Part of you, Carry the weight of you,


G         D    Em             C
I love my son, Like you loved one,

G           B                 Em         D           C           C
It's now my turn, to follow a better day, Think of a better way


G         D    Em             C
I love my son, Like you loved one,

G        B             Em          D          C             
I will become, another Part of you, Carry the weight of you,




Outro:

G             D       Em              C
I want you to know, I have nowhere to go,

G             D                C                G
I want you to see, what you've done to me.
Suggest correction
Give kudos to tab author, rate the tab!
1 2 3 4 5
comments
print report bad tab
guest
You may want to rate the tab now too:
select rating
Wanna post a correction for this tab? Suggest correction