Oops, an error
Loading. Please wait.

Same Jeans Bass Tab

version 2
version 2

Whole song

Interactive

1,142 views 1 this week
no commentswrite comment
1 2 3 4 5
accurate
x 3
add to favorites
launch autoscroll
font size
0
reset
guitar tuner
Autoscroll
slow
fast
+/-
esc
set tempo
stop
Help us to improve Ultimate-Guitar.com Take our survey!
×
Author
Same Jeans - The View


VERSE
(bass comes in at 0:21)

G||----------2-----7----------|
D||----2---3--3--5--5---------|
A||--3--3-------------3-3-3-0-|
E||---------------------------| (x3)

G||----------2-----7----|
D||----2---3--3--5--5---|
A||--3--3-------------3-|
E||---------------------|

CHORUS/solo

G||-----------------|--------------|---------------------------------------|
D||-----------------|-----------7--|---------------------------------------|
A||--3-3-3-3/8-8-8--|-3-3-3-3/8--8-|-3-3-3-3/8-8-8-10-10-10-10-10-10-10-10-|
E||-----------------|--------------|---------------------------------------| (x2)

ENDING

G||-------------------|
D||-------------------|
A||---8-10-8-7--------|
E||-8----------8------|

OUTRO (Fast part)

G||-------------2b---|
D||-----2-2-3-3------|
A||-3-3--------------|
E||------------------| (X11)

G||-------------2b-----------|
D||-----2-2-3-3----3-2-0-----|
A||-3-3------------------3---|
E||--------------------------|

Song Structure

Verse
Chorus
Verse (x2)
Chorus
Solo
Verse
Chorus (x2)
Ending
Outro

Suggest correction
Give kudos to tab author, rate the tab!
1 2 3 4 5
comments
print report bad tab
guest
You may want to rate the tab now too:
select rating
Wanna post a correction for this tab? Suggest correction