Oops, an error
Loading. Please wait.

Same Jeans Tab

version 2
version 2

Whole song

Interactive

6,869 views 1 this week
8 commentsread comments
1 2 3 4 5
x 8
add to favorites
launch autoscroll
font size
0
reset
how to read this tab
guitar tuner
Autoscroll
slow
fast
+/-
esc
set tempo
stop
Help us to improve Ultimate-Guitar.com Take our survey!
×
Author
Difficulty
novice
Chords:
   C?  Fmaj7?  F   C    G
e|-3---3-------8----3---3|
B|-1---1-------10---5---0|
G|-0---2-------10---5---0|
D|-2---3-------10---5---0|
A|-3-----------8----3---2|
E|----------------------3|

Note: most tabbing was done by Andy Wilkinson. I used his tab as a template and just 
some things.

Intro:
C?,Fmaj7?,G,C?

Verse:

           C?        Fmaj7?  G         C?
Iv had the same jeans on for four days now
          C?      Fmaj7?       G             C?
I’m gonna go to a disco in the middle of the town
     C?              Fmaj7? G        C?  etc
Everybody’s dressing up I’m dressing down

Life’s one big circle, it does end
When it ends will you still be my friend?
I’m not making a fool of myself
I sed, I’m not making a fool of myself

Chorus:

    C                    F       C  F
So, when you look in the mirror
  C                F                G(10th fret)     F
Reflecting back at you someone that you don’t knoooow
C          F              C           F
Ooo that’s just made your head spin around
   C             F
So get your self together, yeah
         G
Get your feet back on the gro-o-o-o-o-ound

I had the same jeans on for four days now
I’m gonna go to a disco in the middle of the town
Everybody’s dressing up I’m dressing down

I take my hat of to the busker man
For drowning his sorrows n singing his songs
Not everything has worked out to plan
But believe he’s smiling as long as he can

So, when you look in the mirror
Reflecting back at you someone that you don’t knoooow
Ooo that’s just made your head spin around
So get your self together, yeah
Get your feet back on the gro-o-o-o-o-ound

Guitar Solo (played over chorus chords)


e----------------------------------------|
b----------------------------------------|       x2
g----------8------8----------------------|
d--10--10-----10-----10--8---10----------|

e----------------------------------------------------------|
b----------------------------------------------11-11-11-11-|
g----------8------8-------8---10--10b12-12-12-12-12-12-12--|
d--10--10-----10-----10------------------------------------|

e------------------------------|
b------------------------------|
g-10b12-10-8h-10-8-----8--10---|         x3
d-------------------10---------|

e----------------------------------------------------|
b--------------------------11-13-13-13-13-13-13-13---|
g-12-12-12-12-12-12-12-12----------------------------|
d----------------------------------------------------|

I had the same jeans on for four days now
I’m gonna go to a disco in the middle of the town
Everybody’s dressing up I’m dressing down

My minds not prefect but it’s sincere
You’d be amazed at what you can achieve in a year
Say you tried so hard, but your hearts on a switch
And I know you tried so hard but your hearts on a switch

So, when you look in the mirror
Reflecting back at you someone that you don’t knoooow
Ooo that’s just made your head spin around
So get your self together, yeah
Get your feet back on the gro-o-o-o-o-ound

Last few verses just miss out the G

C                 F
Same jeans on for four days now
C                           F
Everybody’s dressing up I’m dressing down
C                        F
I’m not making a fool of myself
    C              F
Now belief me baby I can tell
Suggest correction
comments
print report bad tab
8 comments total. Showing first comments.
0 reply
gavindavis 219 Mar 06, 2007 10:53 AM

im thinking they do play it like this i was wondering the times ive seen em play this life wtf his finger was still doing on fret 1 while playing chords so yeah good tab thanks alot

+1 reply
gavindavis 219 Mar 06, 2007 10:55 AM

i think the g is like this
e3
b1
g0
d0
a2
e3

0 reply
gavindavis 219 Mar 29, 2007 11:38 AM

this is corrent like you said the intro is played only problem is in the chorus the 2nd time he plays the plays it as bar chords something along the lines of


-8--8---10---------
-8--10--12-----------
-9--10--12-----
-10-10--12------
-10-8---10-------
-8---------------
also 2nd guitarist plays something like this throughtout apart from the last chord is different
watch aol session of it

guest
You may want to rate the tab now too:
select rating
Wanna post a correction for this tab? Suggest correction