Oops, an error
Loading. Please wait.

Same Jeans Tab

version 4
version 4

Whole song

Interactive

5,269 views 4 this week
2 commentsread comments
1 2 3 4 5
accurate
x 4
add to favorites
launch autoscroll
font size
0
reset
how to read this tab
guitar tuner
Tab Pro tools
  • play this tab
  • loop segment
  • change instrument
  • show fretboard
  • metronome
×
Best way to learn
"Same Jeans"
Autoscroll
slow
fast
+/-
esc
set tempo
stop
Contributor
Difficulty
intermediate
-------------------------------------------------------------------------------
                   SONG NAME-same jeans - Band Name-the view
-------------------------------------------------------------------------------          
     This is an improved version of my old tab.
Tabbed by:fred135

Tuning:standard
intro/verse:(Here is a tip keep your little finger on the top e string.)
e|--3-3-33-3-3-33-3-3-33-3-33------------------------------------------------|
B|--1-1-11-1-1-11-0-0-01-1-11------------------------------------------------|
G|--0-0-00-2-2-22-0-0-00-0-00------------------------------------------------|
D|--2-2-22-3-3-33-0-0-02-2-22------------------------------------------------|
A|--3-3-33--------2-2-23-3-33------------------------------------------------|
E|----------------3-3-3------------------------------------------------------|
verse riff:(Its like a harmonica riff i don't know but its there.)
e|---------------------------------------------------------------------------|
B|----------------10/13-13-13-12---------------------------------------------|
G|-----9~~-9-10-9----------------12------------------------------------------|
D|---------------------------------------------------------------------------|
A|---------------------------------------------------------------------------|
E|---------------------------------------------------------------------------|
chorus:(This bit is a bit harder.)
e|--8--8--x-x--------------8---8--x-x-x-x--------x-x--8--8--x-x--------------|
B|--8--8--x-x--10--10-x-x--8---8--x-x-x-x--10-10-x-x--8--8--x-x-10-10--------|
G|--9--9--x-x--10--10-x-x--9---9--x-x-x-x--10-10-x-x--9--9--x-x-10-10--------|
D|--10-10-x-x--10--10-x-x--10--10-x-x-x-x--10-10-x-x--10-10-x-x-10-10--------|
A|--10-10-x-x--8---8--x-x--10--10-x-x-x-x--8--8--x-x--10-10-x-x--8-8---------|
E|--8--8--x-x--------------8---8--x-x-x-x--------x-x--8--8--x-x--------------|

e|---------------------------------------------------------------------------|
B|-12-12-12-12-12-12-12-12---------------------------------------------------|
G|-12-12-12-12-12-12-12-12---------------------------------------------------|
D|-12-12-12-12-12-12-12-12---------------------------------------------------|
A|-10-10-10-10-10-10-10-10---------------------------------------------------|
E|---------------------------------------------------------------------------|(Then its 
verse and chorus again.)
solo:
e|---------------------------------------------------------------------------|
B|-8---------------------8------8------------8-------------------11--11------|
G|-8-x-8-9-p-8-----------8------8----8~------8----8-h-9-p-8----8-10b-10b-----|
D|-------------10-8-h-10---10-10--10----10-10--10-----------10---------------|
A|---------------------------------------------------------------------------|
E|---------------------------------------------------------------------------|

e|-------------------------------------------------------------------------------------|
B|-11--11------------------------------------------------------------------------------|
G|-10b-10b--8-h-10-8----8-h-10-8----8-h-10-8b-----8-h-10-8----8-h-10-8--8-----10b------|
D|-------------------10----------10-----------10-----------10---------10---------------|
A|-------------------------------------------------------------------------------------|
E|-------------------------------------------------------------------------------------|

e|---------------------------------------------------------------------------|
B|-8-8-8-8-8-8-8-8-12~12~12~13-p-12~~----------------------------------------|
G|---------------------------------------------------------------------------|
D|---------------------------------------------------------------------------|
A|---------------------------------------------------------------------------|
E|---------------------------------------------------------------------------|(then its 
verse and the chorus again)
outro:
e|-0-----3-----1-1---0-0-----------------------------------------------------|
B|-1-x-x-3-----1-1-0-1-1-----------------------------------------------------|
G|-0-x-x-0-x-x-2-2-0-0-0-----------------------------------------------------|
D|-2-x-x-0-x-x-3-3-0-2-2-----------------------------------------------------|
A|-3-x-x-2-x-x-3-3-0-3-3-----------------------------------------------------|
E|-------3-x-x-1-1-----------------------------------------------------------|
the only thing you need to figure out is the outro most of it is there enjoy!

| /  slide up
| \  slide down
| h  hammer-on
| p  pull-off
| ~  vibrato
| +  harmonic
| x  Mute note
===============================================================================
comments
print report bad tab
2 comments total.
0 reply
spike46 wrote on January 15 2009, 03:42 pm

great tab this is the best one here in my opinion
dunno why some idiot gave you 1 star

0 reply
Bl4st wrote on February 1 2011, 07:31 am

Nice one!
Sounds right to me.

I want to post or [tab]
guest
You may want to rate the tab now too:
select rating
Please do not post tabs as comments. Select "correction" instead!