Oops, an error
Loading. Please wait.

Shock Horror Tab

2,925 views 1 this week
2 commentsread comments
1 2 3 4 5
x 4
add to favorites
launch autoscroll
font size
0
reset
how to read this tab
guitar tuner
Autoscroll
slow
fast
+/-
esc
set tempo
stop
Help us to improve Ultimate-Guitar.com Take our survey!
×
Author
Difficulty
novice
i only know the first half of the solo but im sure its spot on this is a great song
and i would be glad if anyone could fill me in on the second half.

e----------------12-9-10-9-(x4)-16-12-14-12-(x4)-16-16-14-14-12-12-9-9-7-7-5-5-4-4-2-2--|
b-12-9-10-9-(x4)------------------------------------------------------------------------|
g---------------------------------------------------------------------------------------|
d---------------------------------------------------------------------------------------|
a---------------------------------------------------------------------------------------|
e---------------------------------------------------------------------------------------|
Suggest correction
comments
print report bad tab
2 comments total.
0 reply
c0nn0ree 91 Feb 10, 2010 08:42 PM

its easier if you change from:

e-16-16-14-14-12-12-9-9-7-7-5-5-4-4-2-2
b--------------------------------------
g--------------------------------------
d--------------------------------------
a--------------------------------------
e--------------------------------------

e-16-16-14-14-12-12-9-9--------------------
b----------------------12-12-10-10-9-9-7-7-
g------------------------------------------
d------------------------------------------
a------------------------------------------
e------------------------------------------

i think the rest goes:

e----------------------------------------------------
b-9-9-9-7-5-7-9h10p9-7-5-9-9-9-7-5-9--9-9-9-9-9-9-9bu
g----------------------------------------------------
d----------------------------------------------------
a----------------------------------------------------
e----------------------------------------------------

0 reply
wking 10 Oct 04, 2011 04:30 PM

Thanks for the first half of the tab, I feel it's easier to play this:

e|-16-16-14-14-12-12-9-9-----------------------|
B|-----------------------12-12-10-10-9-9-------|
G|---------------------------------------11-11-|
D|---------------------------------------------|
A|---------------------------------------------|
E|---------------------------------------------|


and the second half goes like this:

e|----------------------------------------------------------|
B|----------------------------------------------------------|
G|-11b-11b-11-9----9----9----9-11-11b-11b-11-9----9-11-9-11-|
D|--------------11---11---11-------------------11-----------|
A|----------------------------------------------------------|
E|----------------------------------------------------------|

e|----------------------------------------------------------|
B|----------------------------------------------------------|
G|-11b-11pb-11pb-11pb-11pb--------11pb--------9-------------|
D|----------------------------------------------------------|
A|----------------------------------------------------------|
E|----------------------------------------------------------|

guest
You may want to rate the tab now too:
select rating
Wanna post a correction for this tab? Suggest correction