Oops, an error
Loading. Please wait.

Sunday Acoustic Tab

1,819 views 1 this week
no commentswrite comment
1 2 3 4 5
excellent!
x 1
add to favorites
launch autoscroll
font size
0
reset
how to read this tab
guitar tuner
Tab Pro tools
  • play this tab
  • loop segment
  • change instrument
  • show fretboard
  • metronome
Autoscroll
slow
fast
+/-
esc
set tempo
stop
Contributor
Difficulty
novice
Artist: The View
Song: Sunday - Acoustic
Album: Bread and Circuses
Tabbed: Benj Macinnes
Tab #: 1


Intro

e ---8---------------------------------1----------8----------8-----------|
B ---8---------------------------------1----------8----------10----------|
G ---9---------------------------------2----------9----------10----------|
D ---10--------------------------------3----------10---------10----------|
A ---10--------------------------------3----------10---------8-----------|
E ---8---------------------------------1----------8----------8-----------|

Chorus

e --8--------------------------8---------------------------8------8---|
B --8--------------------------9---------------------------8------9---|
G --9--------------------------10--------------------------9------10--|
D --10-------------------------10--------------------------10-----10--| x4
A --10-------------------------8---------------------------10-----10--|
E --8--------------------------8---------------------------8------8---|

  Skip away from a drunken day,    & wake me up on Sunday.
  Steal away from a drunken night, & wake me up on Sunday.
  Thinking back on a hopeless night, & wake me up on Sunday.
  I left the pub when we got kicked out, & wake me up on Sunday.


Pre-Verse 1

e ---5------------------------------3----------------1-------------|
B ---5------------------------------3----------------1-------------|
G ---6------------------------------4----------------4-------------|
D ---7------------------------------5----------------3-------------| x2
A ---7------------------------------5----------------3-------------|
E ---5------------------------------3----------------1-------------|

    Cause when I feel the need to be thrilled I won't ask you.
    Or when I feel the need to be thrilled I won't ask you.



Verse 1

e --8-----------------8---------------------8-----------------8-------|
B --8-----------------9---------------------8-----------------9-------|
G --9-----------------10--------------------9-----------------10------|
D --10----------------10--------------------10----------------10------| x4
A --10----------------8---------------------10----------------8-------|
E --8-----------------8---------------------8-----------------8-------|

    I'm not stealing hope from you
    I'm not stealing hope from you


Chorus (half)

e --8--------------------------8---------------------------8------8---|
B --8--------------------------9---------------------------8------9---|
G --9--------------------------10--------------------------9------10--|
D --10-------------------------10--------------------------10-----10--| 
A --10-------------------------8---------------------------10-----10--|
E --8--------------------------8---------------------------8------8---|
   Steal away from a drunken night, & wake me up on Sunday. 

e --8--------------------------1---------------------------8------8---|
B --8--------------------------1---------------------------8------9---|
G --9--------------------------2---------------------------9------10--|
D --10-------------------------3---------------------------10-----10--| 
A --10-------------------------3---------------------------10-----10--|
E --8--------------------------1---------------------------8------8---|
     Shift is done & I sing this song, & wake me up on a Sunday.
  

Verse 2
e --0----------------0------------------------0---------------------|
B --0----------------1------------------------1---------------------|
G --1----------------0------------------------0---------------------|
D --2----------------0------------------------2---------------------| x2
A --2----------------2------------------------3---------------------|
E --0----------------3------------------------0---------------------|

Cause when I'm looking for something new I won't ask you
Cause when I'm looking for something new I won't ask you


Verse 1

e --8-----------------8---------------------8-----------------8---------|
B --8-----------------9---------------------8-----------------9---------|
G --9-----------------10--------------------9-----------------10--------|
D --10----------------10--------------------10----------------10--------| x2
A --10----------------8---------------------10----------------8---------|
E --8-----------------8---------------------8-----------------8---------|

    I'm not stealing hope from you,        I'm not stealing hope from you
    I'm not stealing hope from you,        I'm not stealing hope from you

Verse 3

e --8----------------------------------------------------------|
B --8----------------------------------------------------------|
G --9----------------------------------------------------------| x1 (instru)
D --10---------------------------------------------------------| x3
A --10---------------------------------------------------------|
E --8----------------------------------------------------------|

   take a note of the scenic road, girl
   take a note of the scenic road, girl
   take a note of the scenic road, girl

e -------5-----------------------------1---------------------|
B -------5-----------------------------1---------------------|
G -------6-----------------------------2---------------------| 
D -------7-----------------------------3---------------------| x2
A -------7-----------------------------3---------------------|
E -------5-----------------------------1---------------------|

    jump around, to the stolen, to the stolen sound.
  So jump around, to the stolen, to the stolen sound.


fade out...


Taken from 'Secret Sessions'. The View - Sunday. 
comments
We did not receive enough feedback on this tab! Please rate:
print report bad tab
1 2 3 4 5
I want to post or [tab]
guest
You may want to rate the tab now too:
select rating
Please do not post tabs as comments. Select "correction" instead!